ISO-10303-21;
HEADER;
FILE_DESCRIPTION (( 'STEP AP214' ),
    '1' );
FILE_NAME ('INGUN_2599.STEP',
    '2023-12-19T14:16:08',
    ( '' ),
    ( '' ),
    'SwSTEP 2.0',
    'SolidWorks 2021',
    '' );
FILE_SCHEMA (( 'AUTOMOTIVE_DESIGN' ));
ENDSEC;

DATA;
#1 = ORIENTED_EDGE ( 'NONE', *, *, #120, .T. ) ;
#2 = MECHANICAL_DESIGN_GEOMETRIC_PRESENTATION_REPRESENTATION (  '', ( #58 ), #137 ) ;
#3 = CARTESIAN_POINT ( 'NONE',  ( 0.000000000000000000, 3.000000000000000000, -5.000000000000000000 ) ) ;
#4 =( NAMED_UNIT ( * ) SI_UNIT ( $, .STERADIAN. ) SOLID_ANGLE_UNIT ( ) );
#5 = CARTESIAN_POINT ( 'NONE',  ( 6.123233995736766282E-16, 0.000000000000000000, 5.000000000000000000 ) ) ;
#6 = EDGE_CURVE ( 'NONE', #198, #161, #164, .T. ) ;
#7 = CARTESIAN_POINT ( 'NONE',  ( 0.000000000000000000, 0.000000000000000000, -2.600000000000000089 ) ) ;
#8 = DIRECTION ( 'NONE',  ( -0.000000000000000000, -1.000000000000000000, -0.000000000000000000 ) ) ;
#9 = ORIENTED_EDGE ( 'NONE', *, *, #40, .T. ) ;
#10 = EDGE_LOOP ( 'NONE', ( #104, #131, #150, #127 ) ) ;
#11 = FILL_AREA_STYLE_COLOUR ( '', #125 ) ;
#12 =( NAMED_UNIT ( * ) SI_UNIT ( $, .STERADIAN. ) SOLID_ANGLE_UNIT ( ) );
#13 = EDGE_CURVE ( 'NONE', #161, #198, #167, .T. ) ;
#14 = PRODUCT_DEFINITION_FORMATION_WITH_SPECIFIED_SOURCE ( 'ANY', '', #62, .NOT_KNOWN. ) ;
#15 = DIRECTION ( 'NONE',  ( 0.000000000000000000, 1.000000000000000000, 0.000000000000000000 ) ) ;
#16 = DIRECTION ( 'NONE',  ( -0.000000000000000000, -1.000000000000000000, -0.000000000000000000 ) ) ;
#17 = DIRECTION ( 'NONE',  ( 0.000000000000000000, 1.000000000000000000, 0.000000000000000000 ) ) ;
#18 = ORIENTED_EDGE ( 'NONE', *, *, #35, .F. ) ;
#19 = ORIENTED_EDGE ( 'NONE', *, *, #214, .T. ) ;
#20 = DIRECTION ( 'NONE',  ( 0.000000000000000000, 1.000000000000000000, 0.000000000000000000 ) ) ;
#21 = CARTESIAN_POINT ( 'NONE',  ( 3.184081677783118191E-16, 3.000000000000000000, 2.600000000000000089 ) ) ;
#22 = DIRECTION ( 'NONE',  ( 0.000000000000000000, 0.000000000000000000, 1.000000000000000000 ) ) ;
#23 = MANIFOLD_SOLID_BREP ( 'Körper Abstandsrolle', #142 ) ;
#24 = ORIENTED_EDGE ( 'NONE', *, *, #13, .F. ) ;
#25 = AXIS2_PLACEMENT_3D ( 'NONE', #126, #20, #194 ) ;
#26 = CARTESIAN_POINT ( 'NONE',  ( 0.000000000000000000, 3.000000000000000000, -2.600000000000000089 ) ) ;
#27 = SURFACE_STYLE_FILL_AREA ( #166 ) ;
#28 = PRODUCT_DEFINITION_CONTEXT ( 'detailed design', #82, 'design' ) ;
#29 = SURFACE_SIDE_STYLE ('',( #27 ) ) ;
#30 = PRODUCT_CONTEXT ( 'NONE', #169, 'mechanical' ) ;
#31 = EDGE_LOOP ( 'NONE', ( #18, #84 ) ) ;
#32 = VECTOR ( 'NONE', #77, 1000.000000000000000 ) ;
#33 = PRESENTATION_LAYER_ASSIGNMENT (  '', '', ( #109 ) ) ;
#34 = DIRECTION ( 'NONE',  ( 0.000000000000000000, 0.000000000000000000, 1.000000000000000000 ) ) ;
#35 = EDGE_CURVE ( 'NONE', #156, #201, #89, .T. ) ;
#36 = DIRECTION ( 'NONE',  ( 0.000000000000000000, -0.000000000000000000, 1.000000000000000000 ) ) ;
#37 = EDGE_LOOP ( 'NONE', ( #24, #103 ) ) ;
#38 = CIRCLE ( 'NONE', #188, 5.000000000000000000 ) ;
#39 = MECHANICAL_DESIGN_GEOMETRIC_PRESENTATION_REPRESENTATION (  '', ( #109 ), #154 ) ;
#40 = EDGE_CURVE ( 'NONE', #112, #189, #113, .T. ) ;
#41 = CARTESIAN_POINT ( 'NONE',  ( 0.000000000000000000, 3.000000000000000000, 0.000000000000000000 ) ) ;
#42 = CARTESIAN_POINT ( 'NONE',  ( 0.000000000000000000, 0.000000000000000000, -5.000000000000000000 ) ) ;
#43 = CARTESIAN_POINT ( 'NONE',  ( 0.000000000000000000, 3.000000000000000000, 0.000000000000000000 ) ) ;
#44 = DIRECTION ( 'NONE',  ( 0.000000000000000000, 1.000000000000000000, 0.000000000000000000 ) ) ;
#45 = EDGE_LOOP ( 'NONE', ( #200, #88, #193, #174 ) ) ;
#46 = CARTESIAN_POINT ( 'NONE',  ( 6.123233995736766282E-16, 3.000000000000000000, 5.000000000000000000 ) ) ;
#47 = AXIS2_PLACEMENT_3D ( 'NONE', #41, #17, #157 ) ;
#48 = EDGE_CURVE ( 'NONE', #189, #112, #147, .T. ) ;
#49 = DIRECTION ( 'NONE',  ( 0.000000000000000000, 0.000000000000000000, 1.000000000000000000 ) ) ;
#50 = PRESENTATION_STYLE_ASSIGNMENT (( #202 ) ) ;
#51 = DIRECTION ( 'NONE',  ( 0.000000000000000000, 0.000000000000000000, 1.000000000000000000 ) ) ;
#52 = PLANE ( 'NONE',  #175 ) ;
#53 =( NAMED_UNIT ( * ) PLANE_ANGLE_UNIT ( ) SI_UNIT ( $, .RADIAN. ) );
#54 = ORIENTED_EDGE ( 'NONE', *, *, #13, .T. ) ;
#55 = FACE_OUTER_BOUND ( 'NONE', #66, .T. ) ;
#56 = LINE ( 'NONE', #21, #32 ) ;
#57 = CYLINDRICAL_SURFACE ( 'NONE', #172, 2.600000000000000089 ) ;
#58 = STYLED_ITEM ( 'NONE', ( #50 ), #23 ) ;
#59 = DIRECTION ( 'NONE',  ( 0.000000000000000000, 0.000000000000000000, 1.000000000000000000 ) ) ;
#60 = ORIENTED_EDGE ( 'NONE', *, *, #6, .T. ) ;
#61 = CARTESIAN_POINT ( 'NONE',  ( 3.184081677783118191E-16, 3.000000000000000000, 2.600000000000000089 ) ) ;
#62 = PRODUCT ( 'INGUN_2599', 'INGUN_2599', '', ( #30 ) ) ;
#63 = AXIS2_PLACEMENT_3D ( 'NONE', #43, #159, #144 ) ;
#64 = APPLICATION_PROTOCOL_DEFINITION ( 'draft international standard', 'automotive_design', 1998, #169 ) ;
#65 = AXIS2_PLACEMENT_3D ( 'NONE', #146, #210, #192 ) ;
#66 = EDGE_LOOP ( 'NONE', ( #100, #60, #118, #91 ) ) ;
#67 = AXIS2_PLACEMENT_3D ( 'NONE', #197, #49, #129 ) ;
#68 = DIRECTION ( 'NONE',  ( 0.000000000000000000, 1.000000000000000000, 0.000000000000000000 ) ) ;
#69 = CARTESIAN_POINT ( 'NONE',  ( 0.000000000000000000, 0.000000000000000000, 0.000000000000000000 ) ) ;
#70 = CARTESIAN_POINT ( 'NONE',  ( 0.000000000000000000, 3.000000000000000000, -5.000000000000000000 ) ) ;
#71 = VECTOR ( 'NONE', #121, 1000.000000000000000 ) ;
#72 = ADVANCED_BREP_SHAPE_REPRESENTATION ( 'INGUN_2599', ( #23, #67 ), #143 ) ;
#73 = FILL_AREA_STYLE_COLOUR ( '', #204 ) ;
#74 = FACE_OUTER_BOUND ( 'NONE', #10, .T. ) ;
#75 = AXIS2_PLACEMENT_3D ( 'NONE', #155, #68, #173 ) ;
#76 = DIRECTION ( 'NONE',  ( -0.000000000000000000, -1.000000000000000000, -0.000000000000000000 ) ) ;
#77 = DIRECTION ( 'NONE',  ( -0.000000000000000000, -1.000000000000000000, -0.000000000000000000 ) ) ;
#78 = DIRECTION ( 'NONE',  ( 0.000000000000000000, 0.000000000000000000, -1.000000000000000000 ) ) ;
#79 = VERTEX_POINT ( 'NONE', #3 ) ;
#80 = AXIS2_PLACEMENT_3D ( 'NONE', #145, #8, #78 ) ;
#81 = SHAPE_DEFINITION_REPRESENTATION ( #178, #72 ) ;
#82 = APPLICATION_CONTEXT ( 'automotive_design' ) ;
#83 = SURFACE_STYLE_USAGE ( .BOTH. , #29 ) ;
#84 = ORIENTED_EDGE ( 'NONE', *, *, #212, .F. ) ;
#85 = PRODUCT_DEFINITION ( 'UNKNOWN', '', #14, #28 ) ;
#86 = DIRECTION ( 'NONE',  ( 0.000000000000000000, 0.000000000000000000, 1.000000000000000000 ) ) ;
#87 = FACE_OUTER_BOUND ( 'NONE', #171, .T. ) ;
#88 = ORIENTED_EDGE ( 'NONE', *, *, #130, .T. ) ;
#89 = CIRCLE ( 'NONE', #209, 5.000000000000000000 ) ;
#90 = SURFACE_SIDE_STYLE ('',( #187 ) ) ;
#91 = ORIENTED_EDGE ( 'NONE', *, *, #48, .F. ) ;
#92 = EDGE_CURVE ( 'NONE', #79, #156, #101, .T. ) ;
#93 = FACE_OUTER_BOUND ( 'NONE', #31, .T. ) ;
#94 = CARTESIAN_POINT ( 'NONE',  ( 0.000000000000000000, 3.000000000000000000, 0.000000000000000000 ) ) ;
#95 = ORIENTED_EDGE ( 'NONE', *, *, #133, .T. ) ;
#96 =( LENGTH_UNIT ( ) NAMED_UNIT ( * ) SI_UNIT ( .MILLI., .METRE. ) );
#97 = VECTOR ( 'NONE', #16, 1000.000000000000000 ) ;
#98 = CARTESIAN_POINT ( 'NONE',  ( 0.000000000000000000, 0.000000000000000000, 0.000000000000000000 ) ) ;
#99 = PRODUCT_RELATED_PRODUCT_CATEGORY ( 'part', '', ( #62 ) ) ;
#100 = ORIENTED_EDGE ( 'NONE', *, *, #120, .F. ) ;
#101 = LINE ( 'NONE', #70, #97 ) ;
#102 = ADVANCED_FACE ( 'NONE', ( #87, #138 ), #52, .T. ) ;
#103 = ORIENTED_EDGE ( 'NONE', *, *, #6, .F. ) ;
#104 = ORIENTED_EDGE ( 'NONE', *, *, #130, .F. ) ;
#105 = ORIENTED_EDGE ( 'NONE', *, *, #115, .F. ) ;
#106 = CARTESIAN_POINT ( 'NONE',  ( 3.184081677783118191E-16, 0.000000000000000000, 2.600000000000000089 ) ) ;
#107 = ADVANCED_FACE ( 'NONE', ( #55 ), #57, .F. ) ;
#108 = CYLINDRICAL_SURFACE ( 'NONE', #63, 5.000000000000000000 ) ;
#109 = STYLED_ITEM ( 'NONE', ( #199 ), #72 ) ;
#110 = FACE_OUTER_BOUND ( 'NONE', #168, .T. ) ;
#111 = CARTESIAN_POINT ( 'NONE',  ( 0.000000000000000000, 3.000000000000000000, 0.000000000000000000 ) ) ;
#112 = VERTEX_POINT ( 'NONE', #7 ) ;
#113 = CIRCLE ( 'NONE', #213, 2.600000000000000089 ) ;
#114 = CARTESIAN_POINT ( 'NONE',  ( 0.000000000000000000, 0.000000000000000000, 0.000000000000000000 ) ) ;
#115 = EDGE_CURVE ( 'NONE', #161, #112, #162, .T. ) ;
#116 = CARTESIAN_POINT ( 'NONE',  ( 0.000000000000000000, 3.000000000000000000, 0.000000000000000000 ) ) ;
#117 = UNCERTAINTY_MEASURE_WITH_UNIT (LENGTH_MEASURE( 1.000000000000000082E-05 ), #149, 'distance_accuracy_value', 'NONE');
#118 = ORIENTED_EDGE ( 'NONE', *, *, #115, .T. ) ;
#119 = CIRCLE ( 'NONE', #25, 5.000000000000000000 ) ;
#120 = EDGE_CURVE ( 'NONE', #198, #189, #56, .T. ) ;
#121 = DIRECTION ( 'NONE',  ( -0.000000000000000000, -1.000000000000000000, -0.000000000000000000 ) ) ;
#122 = PLANE ( 'NONE',  #184 ) ;
#123 = FACE_OUTER_BOUND ( 'NONE', #45, .T. ) ;
#124 = ADVANCED_FACE ( 'NONE', ( #74 ), #108, .T. ) ;
#125 = COLOUR_RGB ( '',0.2509803921568627416, 0.2509803921568627416, 0.2509803921568627416 ) ;
#126 = CARTESIAN_POINT ( 'NONE',  ( 0.000000000000000000, 3.000000000000000000, 0.000000000000000000 ) ) ;
#127 = ORIENTED_EDGE ( 'NONE', *, *, #35, .T. ) ;
#128 = CARTESIAN_POINT ( 'NONE',  ( 0.000000000000000000, 0.000000000000000000, 0.000000000000000000 ) ) ;
#129 = DIRECTION ( 'NONE',  ( 1.000000000000000000, 0.000000000000000000, 0.000000000000000000 ) ) ;
#130 = EDGE_CURVE ( 'NONE', #170, #201, #176, .T. ) ;
#131 = ORIENTED_EDGE ( 'NONE', *, *, #214, .F. ) ;
#132 = APPLICATION_PROTOCOL_DEFINITION ( 'draft international standard', 'automotive_design', 1998, #82 ) ;
#133 = EDGE_CURVE ( 'NONE', #170, #79, #158, .T. ) ;
#134 = AXIS2_PLACEMENT_3D ( 'NONE', #114, #185, #34 ) ;
#135 = ORIENTED_EDGE ( 'NONE', *, *, #48, .T. ) ;
#136 = CARTESIAN_POINT ( 'NONE',  ( 0.000000000000000000, 0.000000000000000000, 0.000000000000000000 ) ) ;
#137 =( GEOMETRIC_REPRESENTATION_CONTEXT ( 3 ) GLOBAL_UNCERTAINTY_ASSIGNED_CONTEXT ( ( #196 ) ) GLOBAL_UNIT_ASSIGNED_CONTEXT ( ( #153, #53, #4 ) ) REPRESENTATION_CONTEXT ( 'NONE', 'WORKASPACE' ) );
#138 = FACE_BOUND ( 'NONE', #37, .T. ) ;
#139 = FILL_AREA_STYLE ('',( #73 ) ) ;
#140 = ADVANCED_FACE ( 'NONE', ( #93, #160 ), #122, .F. ) ;
#141 = CARTESIAN_POINT ( 'NONE',  ( 6.123233995736766282E-16, 3.000000000000000000, 5.000000000000000000 ) ) ;
#142 = CLOSED_SHELL ( 'NONE', ( #152, #179, #102, #140, #124, #107 ) ) ;
#143 =( GEOMETRIC_REPRESENTATION_CONTEXT ( 3 ) GLOBAL_UNCERTAINTY_ASSIGNED_CONTEXT ( ( #181 ) ) GLOBAL_UNIT_ASSIGNED_CONTEXT ( ( #96, #195, #180 ) ) REPRESENTATION_CONTEXT ( 'NONE', 'WORKASPACE' ) );
#144 = DIRECTION ( 'NONE',  ( 0.000000000000000000, 0.000000000000000000, -1.000000000000000000 ) ) ;
#145 = CARTESIAN_POINT ( 'NONE',  ( 0.000000000000000000, 3.000000000000000000, 0.000000000000000000 ) ) ;
#146 = CARTESIAN_POINT ( 'NONE',  ( 0.000000000000000000, 3.000000000000000000, 0.000000000000000000 ) ) ;
#147 = CIRCLE ( 'NONE', #134, 2.600000000000000089 ) ;
#148 = DIRECTION ( 'NONE',  ( 0.000000000000000000, 1.000000000000000000, 0.000000000000000000 ) ) ;
#149 =( LENGTH_UNIT ( ) NAMED_UNIT ( * ) SI_UNIT ( .MILLI., .METRE. ) );
#150 = ORIENTED_EDGE ( 'NONE', *, *, #92, .T. ) ;
#151 = ORIENTED_EDGE ( 'NONE', *, *, #40, .F. ) ;
#152 = ADVANCED_FACE ( 'NONE', ( #110 ), #206, .F. ) ;
#153 =( LENGTH_UNIT ( ) NAMED_UNIT ( * ) SI_UNIT ( .MILLI., .METRE. ) );
#154 =( GEOMETRIC_REPRESENTATION_CONTEXT ( 3 ) GLOBAL_UNCERTAINTY_ASSIGNED_CONTEXT ( ( #117 ) ) GLOBAL_UNIT_ASSIGNED_CONTEXT ( ( #149, #165, #12 ) ) REPRESENTATION_CONTEXT ( 'NONE', 'WORKASPACE' ) );
#155 = CARTESIAN_POINT ( 'NONE',  ( 0.000000000000000000, 3.000000000000000000, 0.000000000000000000 ) ) ;
#156 = VERTEX_POINT ( 'NONE', #42 ) ;
#157 = DIRECTION ( 'NONE',  ( 0.000000000000000000, 0.000000000000000000, 1.000000000000000000 ) ) ;
#158 = CIRCLE ( 'NONE', #163, 5.000000000000000000 ) ;
#159 = DIRECTION ( 'NONE',  ( -0.000000000000000000, -1.000000000000000000, -0.000000000000000000 ) ) ;
#160 = FACE_BOUND ( 'NONE', #205, .T. ) ;
#161 = VERTEX_POINT ( 'NONE', #208 ) ;
#162 = LINE ( 'NONE', #26, #71 ) ;
#163 = AXIS2_PLACEMENT_3D ( 'NONE', #94, #148, #22 ) ;
#164 = CIRCLE ( 'NONE', #47, 2.600000000000000089 ) ;
#165 =( NAMED_UNIT ( * ) PLANE_ANGLE_UNIT ( ) SI_UNIT ( $, .RADIAN. ) );
#166 = FILL_AREA_STYLE ('',( #11 ) ) ;
#167 = CIRCLE ( 'NONE', #75, 2.600000000000000089 ) ;
#168 = EDGE_LOOP ( 'NONE', ( #54, #1, #151, #105 ) ) ;
#169 = APPLICATION_CONTEXT ( 'automotive_design' ) ;
#170 = VERTEX_POINT ( 'NONE', #141 ) ;
#171 = EDGE_LOOP ( 'NONE', ( #19, #95 ) ) ;
#172 = AXIS2_PLACEMENT_3D ( 'NONE', #111, #76, #207 ) ;
#173 = DIRECTION ( 'NONE',  ( 0.000000000000000000, 0.000000000000000000, 1.000000000000000000 ) ) ;
#174 = ORIENTED_EDGE ( 'NONE', *, *, #92, .F. ) ;
#175 = AXIS2_PLACEMENT_3D ( 'NONE', #116, #186, #36 ) ;
#176 = LINE ( 'NONE', #46, #182 ) ;
#177 = DIRECTION ( 'NONE',  ( 0.000000000000000000, -0.000000000000000000, 1.000000000000000000 ) ) ;
#178 = PRODUCT_DEFINITION_SHAPE ( 'NONE', 'NONE',  #85 ) ;
#179 = ADVANCED_FACE ( 'NONE', ( #123 ), #211, .T. ) ;
#180 =( NAMED_UNIT ( * ) SI_UNIT ( $, .STERADIAN. ) SOLID_ANGLE_UNIT ( ) );
#181 = UNCERTAINTY_MEASURE_WITH_UNIT (LENGTH_MEASURE( 1.000000000000000082E-05 ), #96, 'distance_accuracy_value', 'NONE');
#182 = VECTOR ( 'NONE', #190, 1000.000000000000000 ) ;
#183 = PRESENTATION_LAYER_ASSIGNMENT (  '', '', ( #58 ) ) ;
#184 = AXIS2_PLACEMENT_3D ( 'NONE', #98, #191, #177 ) ;
#185 = DIRECTION ( 'NONE',  ( 0.000000000000000000, 1.000000000000000000, 0.000000000000000000 ) ) ;
#186 = DIRECTION ( 'NONE',  ( 0.000000000000000000, 1.000000000000000000, 0.000000000000000000 ) ) ;
#187 = SURFACE_STYLE_FILL_AREA ( #139 ) ;
#188 = AXIS2_PLACEMENT_3D ( 'NONE', #128, #44, #59 ) ;
#189 = VERTEX_POINT ( 'NONE', #106 ) ;
#190 = DIRECTION ( 'NONE',  ( -0.000000000000000000, -1.000000000000000000, -0.000000000000000000 ) ) ;
#191 = DIRECTION ( 'NONE',  ( 0.000000000000000000, 1.000000000000000000, 0.000000000000000000 ) ) ;
#192 = DIRECTION ( 'NONE',  ( 0.000000000000000000, 0.000000000000000000, -1.000000000000000000 ) ) ;
#193 = ORIENTED_EDGE ( 'NONE', *, *, #212, .T. ) ;
#194 = DIRECTION ( 'NONE',  ( 0.000000000000000000, 0.000000000000000000, 1.000000000000000000 ) ) ;
#195 =( NAMED_UNIT ( * ) PLANE_ANGLE_UNIT ( ) SI_UNIT ( $, .RADIAN. ) );
#196 = UNCERTAINTY_MEASURE_WITH_UNIT (LENGTH_MEASURE( 1.000000000000000082E-05 ), #153, 'distance_accuracy_value', 'NONE');
#197 = CARTESIAN_POINT ( 'NONE',  ( 0.000000000000000000, 0.000000000000000000, 0.000000000000000000 ) ) ;
#198 = VERTEX_POINT ( 'NONE', #61 ) ;
#199 = PRESENTATION_STYLE_ASSIGNMENT (( #83 ) ) ;
#200 = ORIENTED_EDGE ( 'NONE', *, *, #133, .F. ) ;
#201 = VERTEX_POINT ( 'NONE', #5 ) ;
#202 = SURFACE_STYLE_USAGE ( .BOTH. , #90 ) ;
#203 = DIRECTION ( 'NONE',  ( 0.000000000000000000, 1.000000000000000000, 0.000000000000000000 ) ) ;
#204 = COLOUR_RGB ( '',0.2509803921568627416, 0.2509803921568627416, 0.2509803921568627416 ) ;
#205 = EDGE_LOOP ( 'NONE', ( #9, #135 ) ) ;
#206 = CYLINDRICAL_SURFACE ( 'NONE', #80, 2.600000000000000089 ) ;
#207 = DIRECTION ( 'NONE',  ( 0.000000000000000000, 0.000000000000000000, -1.000000000000000000 ) ) ;
#208 = CARTESIAN_POINT ( 'NONE',  ( 0.000000000000000000, 3.000000000000000000, -2.600000000000000089 ) ) ;
#209 = AXIS2_PLACEMENT_3D ( 'NONE', #69, #15, #86 ) ;
#210 = DIRECTION ( 'NONE',  ( -0.000000000000000000, -1.000000000000000000, -0.000000000000000000 ) ) ;
#211 = CYLINDRICAL_SURFACE ( 'NONE', #65, 5.000000000000000000 ) ;
#212 = EDGE_CURVE ( 'NONE', #201, #156, #38, .T. ) ;
#213 = AXIS2_PLACEMENT_3D ( 'NONE', #136, #203, #51 ) ;
#214 = EDGE_CURVE ( 'NONE', #79, #170, #119, .T. ) ;
ENDSEC;
END-ISO-10303-21;
