ISO-10303-21;
HEADER;
FILE_DESCRIPTION (( 'STEP AP214' ),
    '1' );
FILE_NAME ('25856~2.STEP',
    '2018-01-24T10:38:02',
    ( '' ),
    ( '' ),
    'SwSTEP 2.0',
    'SolidWorks 2016',
    '' );
FILE_SCHEMA (( 'AUTOMOTIVE_DESIGN' ));
ENDSEC;

DATA;
#1 = EDGE_LOOP ( 'NONE', ( #90, #10, #78, #40 ) ) ;
#2 = EDGE_CURVE ( 'NONE', #111, #64, #108, .T. ) ;
#3 = CARTESIAN_POINT ( 'NONE',  ( 0.0000000000000000000, 0.0000000000000000000, 0.0000000000000000000 ) ) ;
#4 = MECHANICAL_DESIGN_GEOMETRIC_PRESENTATION_REPRESENTATION (  '', ( #153 ), #80 ) ;
#5 =( NAMED_UNIT ( * ) PLANE_ANGLE_UNIT ( ) SI_UNIT ( $, .RADIAN. ) );
#6 = CIRCLE ( 'NONE', #130, 1.500000000000001800 ) ;
#7 = ORIENTED_EDGE ( 'NONE', *, *, #2, .F. ) ;
#8 = PRODUCT_DEFINITION_CONTEXT ( 'detailed design', #168, 'design' ) ;
#9 = ORIENTED_EDGE ( 'NONE', *, *, #193, .T. ) ;
#10 = ORIENTED_EDGE ( 'NONE', *, *, #24, .T. ) ;
#11 = DIRECTION ( 'NONE',  ( -0.0000000000000000000, -1.000000000000000000, -0.0000000000000000000 ) ) ;
#12 = CARTESIAN_POINT ( 'NONE',  ( 0.0000000000000000000, -5.000000000000002700, 0.0000000000000000000 ) ) ;
#13 = EDGE_CURVE ( 'NONE', #201, #121, #47, .T. ) ;
#14 = DIRECTION ( 'NONE',  ( 0.0000000000000000000, 0.0000000000000000000, -1.000000000000000000 ) ) ;
#15 = CARTESIAN_POINT ( 'NONE',  ( 0.0000000000000000000, -18.74568690095845700, -2.500000000000000400 ) ) ;
#16 = CARTESIAN_POINT ( 'NONE',  ( 0.0000000000000000000, -5.000000000000002700, 0.0000000000000000000 ) ) ;
#17 = LINE ( 'NONE', #15, #150 ) ;
#18 = VERTEX_POINT ( 'NONE', #152 ) ;
#19 = FILL_AREA_STYLE ('',( #34 ) ) ;
#20 =( LENGTH_UNIT ( ) NAMED_UNIT ( * ) SI_UNIT ( .MILLI., .METRE. ) );
#21 = FACE_OUTER_BOUND ( 'NONE', #138, .T. ) ;
#22 = EDGE_LOOP ( 'NONE', ( #82, #164 ) ) ;
#23 = DIRECTION ( 'NONE',  ( -0.0000000000000000000, -1.000000000000000000, -0.0000000000000000000 ) ) ;
#24 = EDGE_CURVE ( 'NONE', #52, #18, #92, .T. ) ;
#25 = AXIS2_PLACEMENT_3D ( 'NONE', #199, #71, #141 ) ;
#26 = SHAPE_DEFINITION_REPRESENTATION ( #30, #123 ) ;
#27 = FACE_OUTER_BOUND ( 'NONE', #67, .T. ) ;
#28 = PRODUCT ( '25856~2', '25856~2', '', ( #207 ) ) ;
#29 = ORIENTED_EDGE ( 'NONE', *, *, #13, .T. ) ;
#30 = PRODUCT_DEFINITION_SHAPE ( 'NONE', 'NONE',  #191 ) ;
#31 = ORIENTED_EDGE ( 'NONE', *, *, #143, .T. ) ;
#32 = MECHANICAL_DESIGN_GEOMETRIC_PRESENTATION_REPRESENTATION (  '', ( #144 ), #55 ) ;
#33 = DIRECTION ( 'NONE',  ( 0.0000000000000000000, 0.0000000000000000000, -1.000000000000000000 ) ) ;
#34 = FILL_AREA_STYLE_COLOUR ( '', #88 ) ;
#35 = DIRECTION ( 'NONE',  ( 0.0000000000000000000, 0.0000000000000000000, -1.000000000000000000 ) ) ;
#36 = ORIENTED_EDGE ( 'NONE', *, *, #163, .F. ) ;
#37 = ORIENTED_EDGE ( 'NONE', *, *, #161, .T. ) ;
#38 = AXIS2_PLACEMENT_3D ( 'NONE', #12, #116, #159 ) ;
#39 = DIRECTION ( 'NONE',  ( 0.0000000000000000000, 0.0000000000000000000, -1.000000000000000000 ) ) ;
#40 = ORIENTED_EDGE ( 'NONE', *, *, #128, .F. ) ;
#41 = AXIS2_PLACEMENT_3D ( 'NONE', #83, #23, #136 ) ;
#42 = FACE_BOUND ( 'NONE', #56, .T. ) ;
#43 = VERTEX_POINT ( 'NONE', #45 ) ;
#44 = DIRECTION ( 'NONE',  ( 0.0000000000000000000, 0.0000000000000000000, 1.000000000000000000 ) ) ;
#45 = CARTESIAN_POINT ( 'NONE',  ( 1.836970198721033400E-016, -10.00000000000000400, 1.500000000000003100 ) ) ;
#46 =( LENGTH_UNIT ( ) NAMED_UNIT ( * ) SI_UNIT ( .MILLI., .METRE. ) );
#47 = CIRCLE ( 'NONE', #95, 2.499999999999999600 ) ;
#48 = SURFACE_SIDE_STYLE ('',( #117 ) ) ;
#49 = ADVANCED_FACE ( 'NONE', ( #114 ), #147, .T. ) ;
#50 = VECTOR ( 'NONE', #11, 1000.000000000000000 ) ;
#51 = AXIS2_PLACEMENT_3D ( 'NONE', #120, #196, #76 ) ;
#52 = VERTEX_POINT ( 'NONE', #119 ) ;
#53 = FACE_OUTER_BOUND ( 'NONE', #118, .T. ) ;
#54 = ADVANCED_FACE ( 'NONE', ( #131 ), #188, .T. ) ;
#55 =( GEOMETRIC_REPRESENTATION_CONTEXT ( 3 ) GLOBAL_UNCERTAINTY_ASSIGNED_CONTEXT ( ( #192 ) ) GLOBAL_UNIT_ASSIGNED_CONTEXT ( ( #20, #5, #109 ) ) REPRESENTATION_CONTEXT ( 'NONE', 'WORKASPACE' ) );
#56 = EDGE_LOOP ( 'NONE', ( #212, #142 ) ) ;
#57 = PLANE ( 'NONE',  #113 ) ;
#58 = CARTESIAN_POINT ( 'NONE',  ( 3.061616997868383100E-016, 9.999999999999994700, 2.499999999999999600 ) ) ;
#59 = DIRECTION ( 'NONE',  ( 1.000000000000000000, 0.0000000000000000000, 0.0000000000000000000 ) ) ;
#60 = AXIS2_PLACEMENT_3D ( 'NONE', #205, #177, #74 ) ;
#61 = UNCERTAINTY_MEASURE_WITH_UNIT (LENGTH_MEASURE( 1.000000000000000100E-005 ), #186, 'distance_accuracy_value', 'NONE');
#62 =( NAMED_UNIT ( * ) PLANE_ANGLE_UNIT ( ) SI_UNIT ( $, .RADIAN. ) );
#63 = LINE ( 'NONE', #169, #102 ) ;
#64 = VERTEX_POINT ( 'NONE', #175 ) ;
#65 = DIRECTION ( 'NONE',  ( 0.0000000000000000000, 0.0000000000000000000, -1.000000000000000000 ) ) ;
#66 = CARTESIAN_POINT ( 'NONE',  ( 0.0000000000000000000, 9.999999999999994700, -2.499999999999999600 ) ) ;
#67 = EDGE_LOOP ( 'NONE', ( #157, #75 ) ) ;
#68 = DIRECTION ( 'NONE',  ( -0.0000000000000000000, -1.000000000000000000, -0.0000000000000000000 ) ) ;
#69 = EDGE_CURVE ( 'NONE', #64, #111, #171, .T. ) ;
#70 = MANIFOLD_SOLID_BREP ( 'Rotation1', #215 ) ;
#71 = DIRECTION ( 'NONE',  ( -0.0000000000000000000, -1.000000000000000000, -0.0000000000000000000 ) ) ;
#72 = ORIENTED_EDGE ( 'NONE', *, *, #156, .F. ) ;
#73 = PRODUCT_DEFINITION_FORMATION_WITH_SPECIFIED_SOURCE ( 'ANY', '', #28, .NOT_KNOWN. ) ;
#74 = DIRECTION ( 'NONE',  ( 0.0000000000000000000, 0.0000000000000000000, -1.000000000000000000 ) ) ;
#75 = ORIENTED_EDGE ( 'NONE', *, *, #13, .F. ) ;
#76 = DIRECTION ( 'NONE',  ( 0.0000000000000000000, 0.0000000000000000000, -1.000000000000000000 ) ) ;
#77 = FILL_AREA_STYLE ('',( #178 ) ) ;
#78 = ORIENTED_EDGE ( 'NONE', *, *, #156, .T. ) ;
#79 = DIRECTION ( 'NONE',  ( -0.0000000000000000000, -1.000000000000000000, -0.0000000000000000000 ) ) ;
#80 =( GEOMETRIC_REPRESENTATION_CONTEXT ( 3 ) GLOBAL_UNCERTAINTY_ASSIGNED_CONTEXT ( ( #112 ) ) GLOBAL_UNIT_ASSIGNED_CONTEXT ( ( #46, #62, #206 ) ) REPRESENTATION_CONTEXT ( 'NONE', 'WORKASPACE' ) );
#81 = APPLICATION_CONTEXT ( 'automotive_design' ) ;
#82 = ORIENTED_EDGE ( 'NONE', *, *, #2, .T. ) ;
#83 = CARTESIAN_POINT ( 'NONE',  ( 0.0000000000000000000, -10.00000000000000400, 0.0000000000000000000 ) ) ;
#84 = CARTESIAN_POINT ( 'NONE',  ( 3.620275090733631000E-016, 9.999999999999994700, 0.0000000000000000000 ) ) ;
#85 = PRESENTATION_LAYER_ASSIGNMENT (  '', '', ( #144 ) ) ;
#86 = APPLICATION_PROTOCOL_DEFINITION ( 'draft international standard', 'automotive_design', 1998, #168 ) ;
#87 = EDGE_CURVE ( 'NONE', #176, #43, #94, .T. ) ;
#88 = COLOUR_RGB ( '',0.5254901960784313900, 0.5254901960784313900, 0.5254901960784313900 ) ;
#89 = CARTESIAN_POINT ( 'NONE',  ( 3.061616997868383600E-016, -18.74568690095845700, 2.500000000000000400 ) ) ;
#90 = ORIENTED_EDGE ( 'NONE', *, *, #143, .F. ) ;
#91 = ORIENTED_EDGE ( 'NONE', *, *, #128, .T. ) ;
#92 = CIRCLE ( 'NONE', #105, 1.500000000000001800 ) ;
#93 = AXIS2_PLACEMENT_3D ( 'NONE', #3, #44, #59 ) ;
#94 = CIRCLE ( 'NONE', #203, 1.500000000000003100 ) ;
#95 = AXIS2_PLACEMENT_3D ( 'NONE', #135, #100, #33 ) ;
#96 =( NAMED_UNIT ( * ) PLANE_ANGLE_UNIT ( ) SI_UNIT ( $, .RADIAN. ) );
#97 = SURFACE_STYLE_USAGE ( .BOTH. , #183 ) ;
#98 = ORIENTED_EDGE ( 'NONE', *, *, #69, .F. ) ;
#99 = DIRECTION ( 'NONE',  ( 0.0000000000000000000, -1.000000000000000000, -0.0000000000000000000 ) ) ;
#100 = DIRECTION ( 'NONE',  ( -0.0000000000000000000, -1.000000000000000000, -0.0000000000000000000 ) ) ;
#101 = PRESENTATION_LAYER_ASSIGNMENT (  '', '', ( #153 ) ) ;
#102 = VECTOR ( 'NONE', #189, 1000.000000000000000 ) ;
#103 = CIRCLE ( 'NONE', #51, 2.499999999999999600 ) ;
#104 = ORIENTED_EDGE ( 'NONE', *, *, #179, .F. ) ;
#105 = AXIS2_PLACEMENT_3D ( 'NONE', #16, #155, #217 ) ;
#106 = FACE_OUTER_BOUND ( 'NONE', #195, .T. ) ;
#107 = ADVANCED_FACE ( 'NONE', ( #53 ), #57, .T. ) ;
#108 = CIRCLE ( 'NONE', #38, 2.500000000000001800 ) ;
#109 =( NAMED_UNIT ( * ) SI_UNIT ( $, .STERADIAN. ) SOLID_ANGLE_UNIT ( ) );
#110 =( NAMED_UNIT ( * ) SI_UNIT ( $, .STERADIAN. ) SOLID_ANGLE_UNIT ( ) );
#111 = VERTEX_POINT ( 'NONE', #160 ) ;
#112 = UNCERTAINTY_MEASURE_WITH_UNIT (LENGTH_MEASURE( 1.000000000000000100E-005 ), #46, 'distance_accuracy_value', 'NONE');
#113 = AXIS2_PLACEMENT_3D ( 'NONE', #181, #99, #65 ) ;
#114 = FACE_OUTER_BOUND ( 'NONE', #162, .T. ) ;
#115 = CARTESIAN_POINT ( 'NONE',  ( 0.0000000000000000000, -18.74568690095845700, -1.500000000000002400 ) ) ;
#116 = DIRECTION ( 'NONE',  ( -0.0000000000000000000, -1.000000000000000000, -0.0000000000000000000 ) ) ;
#117 = SURFACE_STYLE_FILL_AREA ( #19 ) ;
#118 = EDGE_LOOP ( 'NONE', ( #209, #91 ) ) ;
#119 = CARTESIAN_POINT ( 'NONE',  ( 1.836970198721031900E-016, -5.000000000000002700, 1.500000000000001800 ) ) ;
#120 = CARTESIAN_POINT ( 'NONE',  ( 0.0000000000000000000, 9.999999999999994700, 0.0000000000000000000 ) ) ;
#121 = VERTEX_POINT ( 'NONE', #66 ) ;
#122 = DIRECTION ( 'NONE',  ( 0.0000000000000000000, 0.0000000000000000000, -1.000000000000000000 ) ) ;
#123 = ADVANCED_BREP_SHAPE_REPRESENTATION ( '25856~2', ( #70, #93 ), #220 ) ;
#124 = CYLINDRICAL_SURFACE ( 'NONE', #167, 1.500000000000002400 ) ;
#125 = DIRECTION ( 'NONE',  ( 0.0000000000000000000, 0.0000000000000000000, -1.000000000000000000 ) ) ;
#126 = CARTESIAN_POINT ( 'NONE',  ( 0.0000000000000000000, -5.000000000000002700, 0.0000000000000000000 ) ) ;
#127 = ORIENTED_EDGE ( 'NONE', *, *, #179, .T. ) ;
#128 = EDGE_CURVE ( 'NONE', #43, #176, #194, .T. ) ;
#129 = SURFACE_STYLE_USAGE ( .BOTH. , #48 ) ;
#130 = AXIS2_PLACEMENT_3D ( 'NONE', #216, #173, #39 ) ;
#131 = FACE_OUTER_BOUND ( 'NONE', #1, .T. ) ;
#132 = PLANE ( 'NONE',  #148 ) ;
#133 = APPLICATION_PROTOCOL_DEFINITION ( 'draft international standard', 'automotive_design', 1998, #81 ) ;
#134 = DIRECTION ( 'NONE',  ( 0.0000000000000000000, -0.0000000000000000000, 1.000000000000000000 ) ) ;
#135 = CARTESIAN_POINT ( 'NONE',  ( 0.0000000000000000000, 9.999999999999994700, 0.0000000000000000000 ) ) ;
#136 = DIRECTION ( 'NONE',  ( 0.0000000000000000000, 0.0000000000000000000, -1.000000000000000000 ) ) ;
#137 = FACE_OUTER_BOUND ( 'NONE', #22, .T. ) ;
#138 = EDGE_LOOP ( 'NONE', ( #36, #29, #127, #98 ) ) ;
#139 = ADVANCED_FACE ( 'NONE', ( #27 ), #132, .T. ) ;
#140 = ORIENTED_EDGE ( 'NONE', *, *, #87, .F. ) ;
#141 = DIRECTION ( 'NONE',  ( 0.0000000000000000000, 0.0000000000000000000, -1.000000000000000000 ) ) ;
#142 = ORIENTED_EDGE ( 'NONE', *, *, #24, .F. ) ;
#143 = EDGE_CURVE ( 'NONE', #52, #43, #63, .T. ) ;
#144 = STYLED_ITEM ( 'NONE', ( #190 ), #70 ) ;
#145 = CARTESIAN_POINT ( 'NONE',  ( 0.0000000000000000000, -18.74568690095845700, 0.0000000000000000000 ) ) ;
#146 = SURFACE_STYLE_FILL_AREA ( #77 ) ;
#147 = CYLINDRICAL_SURFACE ( 'NONE', #211, 2.500000000000000400 ) ;
#148 = AXIS2_PLACEMENT_3D ( 'NONE', #84, #210, #134 ) ;
#149 = VECTOR ( 'NONE', #172, 1000.000000000000000 ) ;
#150 = VECTOR ( 'NONE', #68, 1000.000000000000000 ) ;
#151 = CARTESIAN_POINT ( 'NONE',  ( 0.0000000000000000000, -18.74568690095845700, 0.0000000000000000000 ) ) ;
#152 = CARTESIAN_POINT ( 'NONE',  ( 0.0000000000000000000, -5.000000000000002700, -1.500000000000001800 ) ) ;
#153 = STYLED_ITEM ( 'NONE', ( #170 ), #123 ) ;
#154 = ORIENTED_EDGE ( 'NONE', *, *, #163, .T. ) ;
#155 = DIRECTION ( 'NONE',  ( -0.0000000000000000000, -1.000000000000000000, -0.0000000000000000000 ) ) ;
#156 = EDGE_CURVE ( 'NONE', #18, #176, #185, .T. ) ;
#157 = ORIENTED_EDGE ( 'NONE', *, *, #193, .F. ) ;
#158 = AXIS2_PLACEMENT_3D ( 'NONE', #126, #79, #184 ) ;
#159 = DIRECTION ( 'NONE',  ( 0.0000000000000000000, 0.0000000000000000000, -1.000000000000000000 ) ) ;
#160 = CARTESIAN_POINT ( 'NONE',  ( 0.0000000000000000000, -5.000000000000002700, -2.500000000000001800 ) ) ;
#161 = EDGE_CURVE ( 'NONE', #18, #52, #6, .T. ) ;
#162 = EDGE_LOOP ( 'NONE', ( #9, #154, #7, #104 ) ) ;
#163 = EDGE_CURVE ( 'NONE', #201, #64, #180, .T. ) ;
#164 = ORIENTED_EDGE ( 'NONE', *, *, #69, .T. ) ;
#165 = COLOUR_RGB ( '',0.5254901960784313900, 0.5254901960784313900, 0.5254901960784313900 ) ;
#166 = DIRECTION ( 'NONE',  ( -0.0000000000000000000, -1.000000000000000000, -0.0000000000000000000 ) ) ;
#167 = AXIS2_PLACEMENT_3D ( 'NONE', #198, #218, #122 ) ;
#168 = APPLICATION_CONTEXT ( 'automotive_design' ) ;
#169 = CARTESIAN_POINT ( 'NONE',  ( 1.836970198721032600E-016, -18.74568690095845700, 1.500000000000002400 ) ) ;
#170 = PRESENTATION_STYLE_ASSIGNMENT (( #129 ) ) ;
#171 = CIRCLE ( 'NONE', #158, 2.500000000000001800 ) ;
#172 = DIRECTION ( 'NONE',  ( -0.0000000000000000000, -1.000000000000000000, -0.0000000000000000000 ) ) ;
#173 = DIRECTION ( 'NONE',  ( -0.0000000000000000000, -1.000000000000000000, -0.0000000000000000000 ) ) ;
#174 = AXIS2_PLACEMENT_3D ( 'NONE', #145, #200, #125 ) ;
#175 = CARTESIAN_POINT ( 'NONE',  ( 3.061616997868385100E-016, -5.000000000000002700, 2.500000000000001800 ) ) ;
#176 = VERTEX_POINT ( 'NONE', #214 ) ;
#177 = DIRECTION ( 'NONE',  ( 0.0000000000000000000, -1.000000000000000000, -0.0000000000000000000 ) ) ;
#178 = FILL_AREA_STYLE_COLOUR ( '', #165 ) ;
#179 = EDGE_CURVE ( 'NONE', #121, #111, #17, .T. ) ;
#180 = LINE ( 'NONE', #89, #149 ) ;
#181 = CARTESIAN_POINT ( 'NONE',  ( 2.811240216718117200E-015, -10.00000000000000200, 0.0000000000000000000 ) ) ;
#182 = DIRECTION ( 'NONE',  ( -0.0000000000000000000, -1.000000000000000000, -0.0000000000000000000 ) ) ;
#183 = SURFACE_SIDE_STYLE ('',( #146 ) ) ;
#184 = DIRECTION ( 'NONE',  ( 0.0000000000000000000, 0.0000000000000000000, -1.000000000000000000 ) ) ;
#185 = LINE ( 'NONE', #115, #50 ) ;
#186 =( LENGTH_UNIT ( ) NAMED_UNIT ( * ) SI_UNIT ( .MILLI., .METRE. ) );
#187 = CYLINDRICAL_SURFACE ( 'NONE', #174, 2.500000000000000400 ) ;
#188 = CYLINDRICAL_SURFACE ( 'NONE', #25, 1.500000000000002400 ) ;
#189 = DIRECTION ( 'NONE',  ( -0.0000000000000000000, -1.000000000000000000, -0.0000000000000000000 ) ) ;
#190 = PRESENTATION_STYLE_ASSIGNMENT (( #97 ) ) ;
#191 = PRODUCT_DEFINITION ( 'UNKNOWN', '', #73, #8 ) ;
#192 = UNCERTAINTY_MEASURE_WITH_UNIT (LENGTH_MEASURE( 1.000000000000000100E-005 ), #20, 'distance_accuracy_value', 'NONE');
#193 = EDGE_CURVE ( 'NONE', #121, #201, #103, .T. ) ;
#194 = CIRCLE ( 'NONE', #41, 1.500000000000003100 ) ;
#195 = EDGE_LOOP ( 'NONE', ( #37, #31, #140, #72 ) ) ;
#196 = DIRECTION ( 'NONE',  ( -0.0000000000000000000, -1.000000000000000000, -0.0000000000000000000 ) ) ;
#197 = ADVANCED_FACE ( 'NONE', ( #106 ), #124, .T. ) ;
#198 = CARTESIAN_POINT ( 'NONE',  ( 0.0000000000000000000, -18.74568690095845700, 0.0000000000000000000 ) ) ;
#199 = CARTESIAN_POINT ( 'NONE',  ( 0.0000000000000000000, -18.74568690095845700, 0.0000000000000000000 ) ) ;
#200 = DIRECTION ( 'NONE',  ( -0.0000000000000000000, -1.000000000000000000, -0.0000000000000000000 ) ) ;
#201 = VERTEX_POINT ( 'NONE', #58 ) ;
#202 = PLANE ( 'NONE',  #60 ) ;
#203 = AXIS2_PLACEMENT_3D ( 'NONE', #204, #166, #35 ) ;
#204 = CARTESIAN_POINT ( 'NONE',  ( 0.0000000000000000000, -10.00000000000000400, 0.0000000000000000000 ) ) ;
#205 = CARTESIAN_POINT ( 'NONE',  ( 2.500000000000001800, -5.000000000000002700, 0.0000000000000000000 ) ) ;
#206 =( NAMED_UNIT ( * ) SI_UNIT ( $, .STERADIAN. ) SOLID_ANGLE_UNIT ( ) );
#207 = PRODUCT_CONTEXT ( 'NONE', #81, 'mechanical' ) ;
#208 = ADVANCED_FACE ( 'NONE', ( #137, #42 ), #202, .T. ) ;
#209 = ORIENTED_EDGE ( 'NONE', *, *, #87, .T. ) ;
#210 = DIRECTION ( 'NONE',  ( 0.0000000000000000000, 1.000000000000000000, 0.0000000000000000000 ) ) ;
#211 = AXIS2_PLACEMENT_3D ( 'NONE', #151, #182, #14 ) ;
#212 = ORIENTED_EDGE ( 'NONE', *, *, #161, .F. ) ;
#213 = PRODUCT_RELATED_PRODUCT_CATEGORY ( 'part', '', ( #28 ) ) ;
#214 = CARTESIAN_POINT ( 'NONE',  ( 0.0000000000000000000, -10.00000000000000400, -1.500000000000003100 ) ) ;
#215 = CLOSED_SHELL ( 'NONE', ( #197, #49, #139, #219, #208, #54, #107 ) ) ;
#216 = CARTESIAN_POINT ( 'NONE',  ( 0.0000000000000000000, -5.000000000000002700, 0.0000000000000000000 ) ) ;
#217 = DIRECTION ( 'NONE',  ( 0.0000000000000000000, 0.0000000000000000000, -1.000000000000000000 ) ) ;
#218 = DIRECTION ( 'NONE',  ( -0.0000000000000000000, -1.000000000000000000, -0.0000000000000000000 ) ) ;
#219 = ADVANCED_FACE ( 'NONE', ( #21 ), #187, .T. ) ;
#220 =( GEOMETRIC_REPRESENTATION_CONTEXT ( 3 ) GLOBAL_UNCERTAINTY_ASSIGNED_CONTEXT ( ( #61 ) ) GLOBAL_UNIT_ASSIGNED_CONTEXT ( ( #186, #96, #110 ) ) REPRESENTATION_CONTEXT ( 'NONE', 'WORKASPACE' ) );
ENDSEC;
END-ISO-10303-21;
