ISO-10303-21;
HEADER;
FILE_DESCRIPTION (( 'STEP AP214' ),
    '1' );
FILE_NAME ('2579~0.STEP',
    '2018-01-08T10:11:54',
    ( '' ),
    ( '' ),
    'SwSTEP 2.0',
    'SolidWorks 2016',
    '' );
FILE_SCHEMA (( 'AUTOMOTIVE_DESIGN' ));
ENDSEC;

DATA;
#1 = MECHANICAL_DESIGN_GEOMETRIC_PRESENTATION_REPRESENTATION (  '', ( #191 ), #116 ) ;
#2 = AXIS2_PLACEMENT_3D ( 'NONE', #121, #136, #152 ) ;
#3 = LINE ( 'NONE', #198, #120 ) ;
#4 = DIRECTION ( 'NONE',  ( 0.0000000000000000000, 0.0000000000000000000, 1.000000000000000000 ) ) ;
#5 = VECTOR ( 'NONE', #103, 1000.000000000000000 ) ;
#6 = PRODUCT_DEFINITION_CONTEXT ( 'detailed design', #96, 'design' ) ;
#7 = DIRECTION ( 'NONE',  ( -0.0000000000000000000, -0.0000000000000000000, -1.000000000000000000 ) ) ;
#8 = DIRECTION ( 'NONE',  ( 0.0000000000000000000, 0.0000000000000000000, 1.000000000000000000 ) ) ;
#9 = DIRECTION ( 'NONE',  ( 0.0000000000000000000, 0.0000000000000000000, 1.000000000000000000 ) ) ;
#10 = ORIENTED_EDGE ( 'NONE', *, *, #146, .F. ) ;
#11 = APPLICATION_PROTOCOL_DEFINITION ( 'draft international standard', 'automotive_design', 1998, #72 ) ;
#12 = FACE_OUTER_BOUND ( 'NONE', #163, .T. ) ;
#13 = ORIENTED_EDGE ( 'NONE', *, *, #32, .F. ) ;
#14 =( LENGTH_UNIT ( ) NAMED_UNIT ( * ) SI_UNIT ( .MILLI., .METRE. ) );
#15 = AXIS2_PLACEMENT_3D ( 'NONE', #138, #186, #83 ) ;
#16 = CIRCLE ( 'NONE', #209, 2.500000000000000000 ) ;
#17 = ORIENTED_EDGE ( 'NONE', *, *, #177, .F. ) ;
#18 = CARTESIAN_POINT ( 'NONE',  ( 0.0000000000000000000, 0.0000000000000000000, 1.000000000000000000 ) ) ;
#19 = CARTESIAN_POINT ( 'NONE',  ( 5.000000000000000000, 6.123233995736766300E-016, 1.000000000000000000 ) ) ;
#20 = ORIENTED_EDGE ( 'NONE', *, *, #201, .F. ) ;
#21 = UNCERTAINTY_MEASURE_WITH_UNIT (LENGTH_MEASURE( 1.000000000000000100E-005 ), #93, 'distance_accuracy_value', 'NONE');
#22 = DIRECTION ( 'NONE',  ( -0.0000000000000000000, -0.0000000000000000000, -1.000000000000000000 ) ) ;
#23 = AXIS2_PLACEMENT_3D ( 'NONE', #135, #9, #27 ) ;
#24 = PRODUCT_DEFINITION_SHAPE ( 'NONE', 'NONE',  #71 ) ;
#25 = CARTESIAN_POINT ( 'NONE',  ( -5.000000000000000000, 0.0000000000000000000, 0.0000000000000000000 ) ) ;
#26 = EDGE_CURVE ( 'NONE', #30, #169, #190, .T. ) ;
#27 = DIRECTION ( 'NONE',  ( 1.000000000000000000, 0.0000000000000000000, 0.0000000000000000000 ) ) ;
#28 = CARTESIAN_POINT ( 'NONE',  ( 0.0000000000000000000, 0.0000000000000000000, 0.0000000000000000000 ) ) ;
#29 = ORIENTED_EDGE ( 'NONE', *, *, #109, .T. ) ;
#30 = VERTEX_POINT ( 'NONE', #38 ) ;
#31 = DIRECTION ( 'NONE',  ( 0.0000000000000000000, 0.0000000000000000000, 1.000000000000000000 ) ) ;
#32 = EDGE_CURVE ( 'NONE', #207, #169, #211, .T. ) ;
#33 = AXIS2_PLACEMENT_3D ( 'NONE', #40, #31, #174 ) ;
#34 = STYLED_ITEM ( 'NONE', ( #188 ), #195 ) ;
#35 = SURFACE_STYLE_FILL_AREA ( #92 ) ;
#36 = EDGE_LOOP ( 'NONE', ( #193, #133 ) ) ;
#37 = ORIENTED_EDGE ( 'NONE', *, *, #128, .F. ) ;
#38 = CARTESIAN_POINT ( 'NONE',  ( 2.500000000000000000, 3.061616997868383100E-016, 1.000000000000000000 ) ) ;
#39 = ORIENTED_EDGE ( 'NONE', *, *, #142, .T. ) ;
#40 = CARTESIAN_POINT ( 'NONE',  ( 0.0000000000000000000, 0.0000000000000000000, 0.0000000000000000000 ) ) ;
#41 = LINE ( 'NONE', #44, #173 ) ;
#42 = DIRECTION ( 'NONE',  ( -1.000000000000000000, 0.0000000000000000000, 0.0000000000000000000 ) ) ;
#43 = DIRECTION ( 'NONE',  ( 1.000000000000000000, 0.0000000000000000000, 0.0000000000000000000 ) ) ;
#44 = CARTESIAN_POINT ( 'NONE',  ( -5.000000000000000000, 0.0000000000000000000, 1.000000000000000000 ) ) ;
#45 = COLOUR_RGB ( '',0.3725490196078431500, 0.3725490196078431500, 0.3725490196078431500 ) ;
#46 = DIRECTION ( 'NONE',  ( 1.000000000000000000, 0.0000000000000000000, -0.0000000000000000000 ) ) ;
#47 = ORIENTED_EDGE ( 'NONE', *, *, #187, .T. ) ;
#48 = VERTEX_POINT ( 'NONE', #19 ) ;
#49 = CYLINDRICAL_SURFACE ( 'NONE', #161, 5.000000000000000000 ) ;
#50 = FACE_BOUND ( 'NONE', #84, .T. ) ;
#51 = CIRCLE ( 'NONE', #157, 5.000000000000000000 ) ;
#52 = CARTESIAN_POINT ( 'NONE',  ( 2.500000000000000000, 3.061616997868383100E-016, 1.000000000000000000 ) ) ;
#53 = DIRECTION ( 'NONE',  ( -0.0000000000000000000, -0.0000000000000000000, -1.000000000000000000 ) ) ;
#54 = FACE_OUTER_BOUND ( 'NONE', #199, .T. ) ;
#55 = CARTESIAN_POINT ( 'NONE',  ( 0.0000000000000000000, 0.0000000000000000000, 1.000000000000000000 ) ) ;
#56 = VERTEX_POINT ( 'NONE', #150 ) ;
#57 =( NAMED_UNIT ( * ) PLANE_ANGLE_UNIT ( ) SI_UNIT ( $, .RADIAN. ) );
#58 = LINE ( 'NONE', #86, #5 ) ;
#59 = ADVANCED_FACE ( 'NONE', ( #54 ), #79, .F. ) ;
#60 = EDGE_CURVE ( 'NONE', #48, #112, #3, .T. ) ;
#61 = ORIENTED_EDGE ( 'NONE', *, *, #32, .T. ) ;
#62 = DIRECTION ( 'NONE',  ( 1.000000000000000000, 0.0000000000000000000, 0.0000000000000000000 ) ) ;
#63 = CARTESIAN_POINT ( 'NONE',  ( 0.0000000000000000000, 0.0000000000000000000, 1.000000000000000000 ) ) ;
#64 = AXIS2_PLACEMENT_3D ( 'NONE', #63, #22, #98 ) ;
#65 = DIRECTION ( 'NONE',  ( 0.0000000000000000000, 0.0000000000000000000, 1.000000000000000000 ) ) ;
#66 = CARTESIAN_POINT ( 'NONE',  ( -2.500000000000000000, 0.0000000000000000000, 0.0000000000000000000 ) ) ;
#67 = CARTESIAN_POINT ( 'NONE',  ( 0.0000000000000000000, 0.0000000000000000000, 1.000000000000000000 ) ) ;
#68 = CARTESIAN_POINT ( 'NONE',  ( 0.0000000000000000000, 0.0000000000000000000, 1.000000000000000000 ) ) ;
#69 =( NAMED_UNIT ( * ) PLANE_ANGLE_UNIT ( ) SI_UNIT ( $, .RADIAN. ) );
#70 = EDGE_LOOP ( 'NONE', ( #203, #147, #47, #17 ) ) ;
#71 = PRODUCT_DEFINITION ( 'UNKNOWN', '', #153, #6 ) ;
#72 = APPLICATION_CONTEXT ( 'automotive_design' ) ;
#73 = CYLINDRICAL_SURFACE ( 'NONE', #99, 2.500000000000000000 ) ;
#74 = ORIENTED_EDGE ( 'NONE', *, *, #26, .F. ) ;
#75 = AXIS2_PLACEMENT_3D ( 'NONE', #67, #206, #160 ) ;
#76 = FACE_OUTER_BOUND ( 'NONE', #114, .T. ) ;
#77 = PRESENTATION_LAYER_ASSIGNMENT (  '', '', ( #191 ) ) ;
#78 = MANIFOLD_SOLID_BREP ( 'Basis-Linear-Austragen-Dünn', #144 ) ;
#79 = CYLINDRICAL_SURFACE ( 'NONE', #64, 2.500000000000000000 ) ;
#80 = SURFACE_STYLE_USAGE ( .BOTH. , #166 ) ;
#81 = ORIENTED_EDGE ( 'NONE', *, *, #177, .T. ) ;
#82 = CARTESIAN_POINT ( 'NONE',  ( 0.0000000000000000000, 0.0000000000000000000, 0.0000000000000000000 ) ) ;
#83 = DIRECTION ( 'NONE',  ( -1.000000000000000000, 0.0000000000000000000, 0.0000000000000000000 ) ) ;
#84 = EDGE_LOOP ( 'NONE', ( #61, #115 ) ) ;
#85 = ORIENTED_EDGE ( 'NONE', *, *, #148, .F. ) ;
#86 = CARTESIAN_POINT ( 'NONE',  ( -2.500000000000000000, 0.0000000000000000000, 1.000000000000000000 ) ) ;
#87 = ADVANCED_FACE ( 'NONE', ( #76 ), #73, .F. ) ;
#88 = CARTESIAN_POINT ( 'NONE',  ( 5.000000000000000000, 6.123233995736766300E-016, 0.0000000000000000000 ) ) ;
#89 = CARTESIAN_POINT ( 'NONE',  ( 0.0000000000000000000, 0.0000000000000000000, 1.000000000000000000 ) ) ;
#90 = FACE_OUTER_BOUND ( 'NONE', #70, .T. ) ;
#91 = FILL_AREA_STYLE_COLOUR ( '', #162 ) ;
#92 = FILL_AREA_STYLE ('',( #91 ) ) ;
#93 =( LENGTH_UNIT ( ) NAMED_UNIT ( * ) SI_UNIT ( .MILLI., .METRE. ) );
#94 = AXIS2_PLACEMENT_3D ( 'NONE', #82, #4, #62 ) ;
#95 = ORIENTED_EDGE ( 'NONE', *, *, #60, .F. ) ;
#96 = APPLICATION_CONTEXT ( 'automotive_design' ) ;
#97 = CYLINDRICAL_SURFACE ( 'NONE', #15, 5.000000000000000000 ) ;
#98 = DIRECTION ( 'NONE',  ( -1.000000000000000000, 0.0000000000000000000, 0.0000000000000000000 ) ) ;
#99 = AXIS2_PLACEMENT_3D ( 'NONE', #18, #101, #167 ) ;
#100 = CIRCLE ( 'NONE', #23, 2.500000000000000000 ) ;
#101 = DIRECTION ( 'NONE',  ( -0.0000000000000000000, -0.0000000000000000000, -1.000000000000000000 ) ) ;
#102 = ORIENTED_EDGE ( 'NONE', *, *, #201, .T. ) ;
#103 = DIRECTION ( 'NONE',  ( -0.0000000000000000000, -0.0000000000000000000, -1.000000000000000000 ) ) ;
#104 = CARTESIAN_POINT ( 'NONE',  ( 0.0000000000000000000, 0.0000000000000000000, 1.000000000000000000 ) ) ;
#105 = ADVANCED_FACE ( 'NONE', ( #90 ), #49, .T. ) ;
#106 = CARTESIAN_POINT ( 'NONE',  ( 0.0000000000000000000, 0.0000000000000000000, 0.0000000000000000000 ) ) ;
#107 = ADVANCED_FACE ( 'NONE', ( #117 ), #97, .T. ) ;
#108 = DIRECTION ( 'NONE',  ( 0.0000000000000000000, 0.0000000000000000000, 1.000000000000000000 ) ) ;
#109 = EDGE_CURVE ( 'NONE', #56, #207, #58, .T. ) ;
#110 = ADVANCED_FACE ( 'NONE', ( #158, #139 ), #137, .T. ) ;
#111 = APPLICATION_PROTOCOL_DEFINITION ( 'draft international standard', 'automotive_design', 1998, #96 ) ;
#112 = VERTEX_POINT ( 'NONE', #88 ) ;
#113 = PRODUCT_RELATED_PRODUCT_CATEGORY ( 'part', '', ( #202 ) ) ;
#114 = EDGE_LOOP ( 'NONE', ( #194, #129, #13, #143 ) ) ;
#115 = ORIENTED_EDGE ( 'NONE', *, *, #148, .T. ) ;
#116 =( GEOMETRIC_REPRESENTATION_CONTEXT ( 3 ) GLOBAL_UNCERTAINTY_ASSIGNED_CONTEXT ( ( #172 ) ) GLOBAL_UNIT_ASSIGNED_CONTEXT ( ( #196, #170, #122 ) ) REPRESENTATION_CONTEXT ( 'NONE', 'WORKASPACE' ) );
#117 = FACE_OUTER_BOUND ( 'NONE', #154, .T. ) ;
#118 = FILL_AREA_STYLE_COLOUR ( '', #45 ) ;
#119 = DIRECTION ( 'NONE',  ( 1.000000000000000000, 0.0000000000000000000, 0.0000000000000000000 ) ) ;
#120 = VECTOR ( 'NONE', #149, 1000.000000000000000 ) ;
#121 = CARTESIAN_POINT ( 'NONE',  ( 0.0000000000000000000, 0.0000000000000000000, 0.0000000000000000000 ) ) ;
#122 =( NAMED_UNIT ( * ) SI_UNIT ( $, .STERADIAN. ) SOLID_ANGLE_UNIT ( ) );
#123 = DIRECTION ( 'NONE',  ( 0.0000000000000000000, 0.0000000000000000000, 1.000000000000000000 ) ) ;
#124 = DIRECTION ( 'NONE',  ( 0.0000000000000000000, 0.0000000000000000000, 1.000000000000000000 ) ) ;
#125 = SURFACE_STYLE_USAGE ( .BOTH. , #208 ) ;
#126 = CIRCLE ( 'NONE', #75, 2.500000000000000000 ) ;
#127 = SURFACE_STYLE_FILL_AREA ( #151 ) ;
#128 = EDGE_CURVE ( 'NONE', #56, #30, #16, .T. ) ;
#129 = ORIENTED_EDGE ( 'NONE', *, *, #26, .T. ) ;
#130 = VERTEX_POINT ( 'NONE', #25 ) ;
#131 = EDGE_LOOP ( 'NONE', ( #37, #20 ) ) ;
#132 =( GEOMETRIC_REPRESENTATION_CONTEXT ( 3 ) GLOBAL_UNCERTAINTY_ASSIGNED_CONTEXT ( ( #159 ) ) GLOBAL_UNIT_ASSIGNED_CONTEXT ( ( #14, #69, #145 ) ) REPRESENTATION_CONTEXT ( 'NONE', 'WORKASPACE' ) );
#133 = ORIENTED_EDGE ( 'NONE', *, *, #180, .T. ) ;
#134 = AXIS2_PLACEMENT_3D ( 'NONE', #28, #8, #119 ) ;
#135 = CARTESIAN_POINT ( 'NONE',  ( 0.0000000000000000000, 0.0000000000000000000, 0.0000000000000000000 ) ) ;
#136 = DIRECTION ( 'NONE',  ( 0.0000000000000000000, 0.0000000000000000000, 1.000000000000000000 ) ) ;
#137 = PLANE ( 'NONE',  #178 ) ;
#138 = CARTESIAN_POINT ( 'NONE',  ( 0.0000000000000000000, 0.0000000000000000000, 1.000000000000000000 ) ) ;
#139 = FACE_BOUND ( 'NONE', #131, .T. ) ;
#140 = CARTESIAN_POINT ( 'NONE',  ( 2.500000000000000000, 3.061616997868383100E-016, 0.0000000000000000000 ) ) ;
#141 =( NAMED_UNIT ( * ) SI_UNIT ( $, .STERADIAN. ) SOLID_ANGLE_UNIT ( ) );
#142 = EDGE_CURVE ( 'NONE', #130, #112, #182, .T. ) ;
#143 = ORIENTED_EDGE ( 'NONE', *, *, #109, .F. ) ;
#144 = CLOSED_SHELL ( 'NONE', ( #87, #105, #110, #210, #107, #59 ) ) ;
#145 =( NAMED_UNIT ( * ) SI_UNIT ( $, .STERADIAN. ) SOLID_ANGLE_UNIT ( ) );
#146 = EDGE_CURVE ( 'NONE', #176, #48, #51, .T. ) ;
#147 = ORIENTED_EDGE ( 'NONE', *, *, #60, .T. ) ;
#148 = EDGE_CURVE ( 'NONE', #169, #207, #100, .T. ) ;
#149 = DIRECTION ( 'NONE',  ( -0.0000000000000000000, -0.0000000000000000000, -1.000000000000000000 ) ) ;
#150 = CARTESIAN_POINT ( 'NONE',  ( -2.500000000000000000, 0.0000000000000000000, 1.000000000000000000 ) ) ;
#151 = FILL_AREA_STYLE ('',( #118 ) ) ;
#152 = DIRECTION ( 'NONE',  ( 1.000000000000000000, 0.0000000000000000000, 0.0000000000000000000 ) ) ;
#153 = PRODUCT_DEFINITION_FORMATION_WITH_SPECIFIED_SOURCE ( 'ANY', '', #202, .NOT_KNOWN. ) ;
#154 = EDGE_LOOP ( 'NONE', ( #95, #10, #81, #39 ) ) ;
#155 = DIRECTION ( 'NONE',  ( 1.000000000000000000, 0.0000000000000000000, 0.0000000000000000000 ) ) ;
#156 = CARTESIAN_POINT ( 'NONE',  ( 0.0000000000000000000, 0.0000000000000000000, 1.000000000000000000 ) ) ;
#157 = AXIS2_PLACEMENT_3D ( 'NONE', #156, #123, #155 ) ;
#158 = FACE_OUTER_BOUND ( 'NONE', #36, .T. ) ;
#159 = UNCERTAINTY_MEASURE_WITH_UNIT (LENGTH_MEASURE( 1.000000000000000100E-005 ), #14, 'distance_accuracy_value', 'NONE');
#160 = DIRECTION ( 'NONE',  ( 1.000000000000000000, 0.0000000000000000000, 0.0000000000000000000 ) ) ;
#161 = AXIS2_PLACEMENT_3D ( 'NONE', #104, #184, #42 ) ;
#162 = COLOUR_RGB ( '',0.3725490196078431500, 0.3725490196078431500, 0.3725490196078431500 ) ;
#163 = EDGE_LOOP ( 'NONE', ( #165, #164 ) ) ;
#164 = ORIENTED_EDGE ( 'NONE', *, *, #187, .F. ) ;
#165 = ORIENTED_EDGE ( 'NONE', *, *, #142, .F. ) ;
#166 = SURFACE_SIDE_STYLE ('',( #127 ) ) ;
#167 = DIRECTION ( 'NONE',  ( -1.000000000000000000, 0.0000000000000000000, 0.0000000000000000000 ) ) ;
#168 = CIRCLE ( 'NONE', #205, 5.000000000000000000 ) ;
#169 = VERTEX_POINT ( 'NONE', #140 ) ;
#170 =( NAMED_UNIT ( * ) PLANE_ANGLE_UNIT ( ) SI_UNIT ( $, .RADIAN. ) );
#171 = CARTESIAN_POINT ( 'NONE',  ( -5.000000000000000000, 0.0000000000000000000, 1.000000000000000000 ) ) ;
#172 = UNCERTAINTY_MEASURE_WITH_UNIT (LENGTH_MEASURE( 1.000000000000000100E-005 ), #196, 'distance_accuracy_value', 'NONE');
#173 = VECTOR ( 'NONE', #7, 1000.000000000000000 ) ;
#174 = DIRECTION ( 'NONE',  ( 1.000000000000000000, 0.0000000000000000000, 0.0000000000000000000 ) ) ;
#175 = CIRCLE ( 'NONE', #2, 5.000000000000000000 ) ;
#176 = VERTEX_POINT ( 'NONE', #171 ) ;
#177 = EDGE_CURVE ( 'NONE', #176, #130, #41, .T. ) ;
#178 = AXIS2_PLACEMENT_3D ( 'NONE', #68, #200, #185 ) ;
#179 = PRESENTATION_STYLE_ASSIGNMENT (( #80 ) ) ;
#180 = EDGE_CURVE ( 'NONE', #48, #176, #168, .T. ) ;
#181 = SHAPE_DEFINITION_REPRESENTATION ( #24, #195 ) ;
#182 = CIRCLE ( 'NONE', #134, 5.000000000000000000 ) ;
#183 = DIRECTION ( 'NONE',  ( 1.000000000000000000, 0.0000000000000000000, 0.0000000000000000000 ) ) ;
#184 = DIRECTION ( 'NONE',  ( -0.0000000000000000000, -0.0000000000000000000, -1.000000000000000000 ) ) ;
#185 = DIRECTION ( 'NONE',  ( 1.000000000000000000, 0.0000000000000000000, -0.0000000000000000000 ) ) ;
#186 = DIRECTION ( 'NONE',  ( -0.0000000000000000000, -0.0000000000000000000, -1.000000000000000000 ) ) ;
#187 = EDGE_CURVE ( 'NONE', #112, #130, #175, .T. ) ;
#188 = PRESENTATION_STYLE_ASSIGNMENT (( #125 ) ) ;
#189 = MECHANICAL_DESIGN_GEOMETRIC_PRESENTATION_REPRESENTATION (  '', ( #34 ), #132 ) ;
#190 = LINE ( 'NONE', #52, #213 ) ;
#191 = STYLED_ITEM ( 'NONE', ( #179 ), #78 ) ;
#192 = PRODUCT_CONTEXT ( 'NONE', #72, 'mechanical' ) ;
#193 = ORIENTED_EDGE ( 'NONE', *, *, #146, .T. ) ;
#194 = ORIENTED_EDGE ( 'NONE', *, *, #128, .T. ) ;
#195 = ADVANCED_BREP_SHAPE_REPRESENTATION ( '2579~0', ( #78, #33 ), #197 ) ;
#196 =( LENGTH_UNIT ( ) NAMED_UNIT ( * ) SI_UNIT ( .MILLI., .METRE. ) );
#197 =( GEOMETRIC_REPRESENTATION_CONTEXT ( 3 ) GLOBAL_UNCERTAINTY_ASSIGNED_CONTEXT ( ( #21 ) ) GLOBAL_UNIT_ASSIGNED_CONTEXT ( ( #93, #57, #141 ) ) REPRESENTATION_CONTEXT ( 'NONE', 'WORKASPACE' ) );
#198 = CARTESIAN_POINT ( 'NONE',  ( 5.000000000000000000, 6.123233995736766300E-016, 1.000000000000000000 ) ) ;
#199 = EDGE_LOOP ( 'NONE', ( #74, #102, #29, #85 ) ) ;
#200 = DIRECTION ( 'NONE',  ( 0.0000000000000000000, 0.0000000000000000000, 1.000000000000000000 ) ) ;
#201 = EDGE_CURVE ( 'NONE', #30, #56, #126, .T. ) ;
#202 = PRODUCT ( '2579~0', '2579~0', '', ( #192 ) ) ;
#203 = ORIENTED_EDGE ( 'NONE', *, *, #180, .F. ) ;
#204 = PLANE ( 'NONE',  #212 ) ;
#205 = AXIS2_PLACEMENT_3D ( 'NONE', #55, #65, #183 ) ;
#206 = DIRECTION ( 'NONE',  ( 0.0000000000000000000, 0.0000000000000000000, 1.000000000000000000 ) ) ;
#207 = VERTEX_POINT ( 'NONE', #66 ) ;
#208 = SURFACE_SIDE_STYLE ('',( #35 ) ) ;
#209 = AXIS2_PLACEMENT_3D ( 'NONE', #89, #108, #43 ) ;
#210 = ADVANCED_FACE ( 'NONE', ( #12, #50 ), #204, .F. ) ;
#211 = CIRCLE ( 'NONE', #94, 2.500000000000000000 ) ;
#212 = AXIS2_PLACEMENT_3D ( 'NONE', #106, #124, #46 ) ;
#213 = VECTOR ( 'NONE', #53, 1000.000000000000000 ) ;
#214 = PRESENTATION_LAYER_ASSIGNMENT (  '', '', ( #34 ) ) ;
ENDSEC;
END-ISO-10303-21;
