ISO-10303-21;
HEADER;
FILE_DESCRIPTION (( 'STEP AP214' ),
    '1' );
FILE_NAME ('2487~6.STEP',
    '2019-01-16T09:55:49',
    ( '' ),
    ( '' ),
    'SwSTEP 2.0',
    'SolidWorks 2018',
    '' );
FILE_SCHEMA (( 'AUTOMOTIVE_DESIGN' ));
ENDSEC;

DATA;
#1 = EDGE_CURVE ( 'NONE', #217, #52, #101, .T. ) ;
#2 = CARTESIAN_POINT ( 'NONE',  ( 25.30000000000000071, 3.000000000000002665, -1.499999999999999556 ) ) ;
#3 = VECTOR ( 'NONE', #15, 1000.000000000000000 ) ;
#4 = ORIENTED_EDGE ( 'NONE', *, *, #45, .F. ) ;
#5 = DIRECTION ( 'NONE',  ( -0.0000000000000000000, -0.0000000000000000000, 1.000000000000000000 ) ) ;
#6 = EDGE_CURVE ( 'NONE', #61, #332, #35, .T. ) ;
#7 = DIRECTION ( 'NONE',  ( -1.000000000000000000, 0.0000000000000000000, 0.0000000000000000000 ) ) ;
#8 = EDGE_CURVE ( 'NONE', #263, #235, #161, .T. ) ;
#9 = ORIENTED_EDGE ( 'NONE', *, *, #231, .F. ) ;
#10 = EDGE_CURVE ( 'NONE', #346, #270, #250, .T. ) ;
#11 = VECTOR ( 'NONE', #34, 1000.000000000000000 ) ;
#12 = ORIENTED_EDGE ( 'NONE', *, *, #327, .T. ) ;
#13 = VERTEX_POINT ( 'NONE', #30 ) ;
#14 = SURFACE_STYLE_USAGE ( .BOTH. , #340 ) ;
#15 = DIRECTION ( 'NONE',  ( 0.0000000000000000000, 0.0000000000000000000, 1.000000000000000000 ) ) ;
#16 = ORIENTED_EDGE ( 'NONE', *, *, #82, .F. ) ;
#17 = CARTESIAN_POINT ( 'NONE',  ( 4.900000000000013678, 57.00000000000000000, 3.918740332231606832E-16 ) ) ;
#18 = PLANE ( 'NONE',  #287 ) ;
#19 = AXIS2_PLACEMENT_3D ( 'NONE', #301, #144, #223 ) ;
#20 = PRESENTATION_STYLE_ASSIGNMENT (( #24 ) ) ;
#21 = EDGE_LOOP ( 'NONE', ( #72, #60, #279, #323 ) ) ;
#22 = ORIENTED_EDGE ( 'NONE', *, *, #29, .T. ) ;
#23 = FILL_AREA_STYLE ('',( #258 ) ) ;
#24 = SURFACE_STYLE_USAGE ( .BOTH. , #291 ) ;
#25 = EDGE_CURVE ( 'NONE', #13, #230, #56, .T. ) ;
#26 = ADVANCED_FACE ( 'NONE', ( #253, #181, #88 ), #165, .T. ) ;
#27 = CARTESIAN_POINT ( 'NONE',  ( 3.300000000000000711, 57.00000000000000000, 3.918740332231606832E-16 ) ) ;
#28 = ORIENTED_EDGE ( 'NONE', *, *, #62, .T. ) ;
#29 = EDGE_CURVE ( 'NONE', #13, #235, #289, .T. ) ;
#30 = CARTESIAN_POINT ( 'NONE',  ( 1.699999999999987965, 57.00000000000000000, -1.499999999999999556 ) ) ;
#31 = VECTOR ( 'NONE', #233, 1000.000000000000000 ) ;
#32 = EDGE_CURVE ( 'NONE', #151, #109, #187, .T. ) ;
#33 = DIRECTION ( 'NONE',  ( -1.000000000000000000, 0.0000000000000000000, -0.0000000000000000000 ) ) ;
#34 = DIRECTION ( 'NONE',  ( -0.0000000000000000000, -0.0000000000000000000, 1.000000000000000000 ) ) ;
#35 = LINE ( 'NONE', #244, #39 ) ;
#36 = ORIENTED_EDGE ( 'NONE', *, *, #65, .F. ) ;
#37 = CARTESIAN_POINT ( 'NONE',  ( 0.0000000000000000000, 0.0000000000000000000, -1.500000000000000000 ) ) ;
#38 = CARTESIAN_POINT ( 'NONE',  ( 0.0000000000000000000, 60.00000000000000000, 0.0000000000000000000 ) ) ;
#39 = VECTOR ( 'NONE', #112, 1000.000000000000000 ) ;
#40 = CARTESIAN_POINT ( 'NONE',  ( 0.0000000000000000000, 60.00000000000000000, -1.500000000000000000 ) ) ;
#41 = EDGE_CURVE ( 'NONE', #230, #13, #114, .T. ) ;
#42 =( NAMED_UNIT ( * ) SI_UNIT ( $, .STERADIAN. ) SOLID_ANGLE_UNIT ( ) );
#43 = VECTOR ( 'NONE', #58, 1000.000000000000000 ) ;
#44 = DIRECTION ( 'NONE',  ( 1.000000000000000000, 0.0000000000000000000, 0.0000000000000000000 ) ) ;
#45 = EDGE_CURVE ( 'NONE', #61, #290, #218, .T. ) ;
#46 = DIRECTION ( 'NONE',  ( 1.000000000000000000, 0.0000000000000000000, 0.0000000000000000000 ) ) ;
#47 = PRODUCT_DEFINITION_SHAPE ( 'NONE', 'NONE',  #335 ) ;
#48 = FACE_OUTER_BOUND ( 'NONE', #127, .T. ) ;
#49 = DIRECTION ( 'NONE',  ( 0.0000000000000000000, 0.0000000000000000000, 1.000000000000000000 ) ) ;
#50 =( NAMED_UNIT ( * ) PLANE_ANGLE_UNIT ( ) SI_UNIT ( $, .RADIAN. ) );
#51 = AXIS2_PLACEMENT_3D ( 'NONE', #93, #149, #247 ) ;
#52 = VERTEX_POINT ( 'NONE', #86 ) ;
#53 = DIRECTION ( 'NONE',  ( 1.000000000000000000, 0.0000000000000000000, 0.0000000000000000000 ) ) ;
#54 = ADVANCED_FACE ( 'NONE', ( #238 ), #198, .F. ) ;
#55 = LINE ( 'NONE', #121, #11 ) ;
#56 = CIRCLE ( 'NONE', #210, 1.600000000000012967 ) ;
#57 = AXIS2_PLACEMENT_3D ( 'NONE', #148, #91, #92 ) ;
#58 = DIRECTION ( 'NONE',  ( -1.000000000000000000, -0.0000000000000000000, -0.0000000000000000000 ) ) ;
#59 = DIRECTION ( 'NONE',  ( -0.0000000000000000000, -0.0000000000000000000, 1.000000000000000000 ) ) ;
#60 = ORIENTED_EDGE ( 'NONE', *, *, #320, .F. ) ;
#61 = VERTEX_POINT ( 'NONE', #120 ) ;
#62 = EDGE_CURVE ( 'NONE', #52, #61, #79, .T. ) ;
#63 = DIRECTION ( 'NONE',  ( 1.000000000000000000, 0.0000000000000000000, 0.0000000000000000000 ) ) ;
#64 = CARTESIAN_POINT ( 'NONE',  ( 23.69999999999998508, 3.000000000000002665, 3.918740332231606832E-16 ) ) ;
#65 = EDGE_CURVE ( 'NONE', #290, #217, #152, .T. ) ;
#66 = CARTESIAN_POINT ( 'NONE',  ( 0.0000000000000000000, 0.0000000000000000000, 0.0000000000000000000 ) ) ;
#67 = PRESENTATION_STYLE_ASSIGNMENT (( #14 ) ) ;
#68 = ORIENTED_EDGE ( 'NONE', *, *, #99, .F. ) ;
#69 =( GEOMETRIC_REPRESENTATION_CONTEXT ( 3 ) GLOBAL_UNCERTAINTY_ASSIGNED_CONTEXT ( ( #328 ) ) GLOBAL_UNIT_ASSIGNED_CONTEXT ( ( #76, #285, #42 ) ) REPRESENTATION_CONTEXT ( 'NONE', 'WORKASPACE' ) );
#70 = VECTOR ( 'NONE', #98, 1000.000000000000000 ) ;
#71 = ORIENTED_EDGE ( 'NONE', *, *, #338, .F. ) ;
#72 = ORIENTED_EDGE ( 'NONE', *, *, #107, .F. ) ;
#73 = CARTESIAN_POINT ( 'NONE',  ( 25.30000000000000071, 3.000000000000002665, 0.0000000000000000000 ) ) ;
#74 = DIRECTION ( 'NONE',  ( -0.0000000000000000000, -0.0000000000000000000, 1.000000000000000000 ) ) ;
#75 = CARTESIAN_POINT ( 'NONE',  ( 0.0000000000000000000, 60.00000000000000000, 0.0000000000000000000 ) ) ;
#76 =( LENGTH_UNIT ( ) NAMED_UNIT ( * ) SI_UNIT ( .MILLI., .METRE. ) );
#77 = AXIS2_PLACEMENT_3D ( 'NONE', #274, #5, #63 ) ;
#78 = LINE ( 'NONE', #103, #307 ) ;
#79 = LINE ( 'NONE', #37, #106 ) ;
#80 = ORIENTED_EDGE ( 'NONE', *, *, #157, .F. ) ;
#81 = CARTESIAN_POINT ( 'NONE',  ( 3.300000000000000711, 57.00000000000000000, -1.499999999999999556 ) ) ;
#82 = EDGE_CURVE ( 'NONE', #109, #151, #178, .T. ) ;
#83 = DIRECTION ( 'NONE',  ( -0.0000000000000000000, -0.0000000000000000000, 1.000000000000000000 ) ) ;
#84 = EDGE_LOOP ( 'NONE', ( #339, #271, #36, #4 ) ) ;
#85 = PRODUCT_DEFINITION_FORMATION_WITH_SPECIFIED_SOURCE ( 'ANY', '', #154, .NOT_KNOWN. ) ;
#86 = CARTESIAN_POINT ( 'NONE',  ( 0.0000000000000000000, 60.00000000000000000, -1.500000000000000000 ) ) ;
#87 = SURFACE_STYLE_FILL_AREA ( #155 ) ;
#88 = FACE_OUTER_BOUND ( 'NONE', #84, .T. ) ;
#89 = EDGE_CURVE ( 'NONE', #230, #263, #55, .T. ) ;
#90 = ORIENTED_EDGE ( 'NONE', *, *, #89, .F. ) ;
#91 = DIRECTION ( 'NONE',  ( 0.0000000000000000000, -1.000000000000000000, 0.0000000000000000000 ) ) ;
#92 = DIRECTION ( 'NONE',  ( 0.0000000000000000000, -0.0000000000000000000, -1.000000000000000000 ) ) ;
#93 = CARTESIAN_POINT ( 'NONE',  ( 25.30000000000000071, 3.000000000000002665, 3.918740332231606832E-16 ) ) ;
#94 = AXIS2_PLACEMENT_3D ( 'NONE', #38, #226, #33 ) ;
#95 = LINE ( 'NONE', #66, #336 ) ;
#96 = ORIENTED_EDGE ( 'NONE', *, *, #157, .T. ) ;
#97 = ORIENTED_EDGE ( 'NONE', *, *, #345, .F. ) ;
#98 = DIRECTION ( 'NONE',  ( -0.0000000000000000000, -0.0000000000000000000, 1.000000000000000000 ) ) ;
#99 = EDGE_CURVE ( 'NONE', #235, #263, #333, .T. ) ;
#100 = DIRECTION ( 'NONE',  ( 0.0000000000000000000, 0.0000000000000000000, 1.000000000000000000 ) ) ;
#101 = LINE ( 'NONE', #192, #43 ) ;
#102 = CARTESIAN_POINT ( 'NONE',  ( 1.699999999999987965, 57.00000000000000000, 3.918740332231606832E-16 ) ) ;
#103 = CARTESIAN_POINT ( 'NONE',  ( 0.0000000000000000000, 60.00000000000000000, 0.0000000000000000000 ) ) ;
#104 = CARTESIAN_POINT ( 'NONE',  ( 28.60000000000000142, 60.00000000000000000, -1.500000000000000000 ) ) ;
#105 = CYLINDRICAL_SURFACE ( 'NONE', #163, 1.600000000000014522 ) ;
#106 = VECTOR ( 'NONE', #305, 1000.000000000000000 ) ;
#107 = EDGE_CURVE ( 'NONE', #190, #215, #259, .T. ) ;
#108 = EDGE_LOOP ( 'NONE', ( #201, #344, #225, #239 ) ) ;
#109 = VERTEX_POINT ( 'NONE', #122 ) ;
#110 = CARTESIAN_POINT ( 'NONE',  ( 25.30000000000000071, 3.000000000000002665, 3.918740332231606832E-16 ) ) ;
#111 = PRESENTATION_LAYER_ASSIGNMENT (  '', '', ( #124 ) ) ;
#112 = DIRECTION ( 'NONE',  ( 0.0000000000000000000, 0.0000000000000000000, 1.000000000000000000 ) ) ;
#113 = DIRECTION ( 'NONE',  ( 1.000000000000000000, 0.0000000000000000000, 0.0000000000000000000 ) ) ;
#114 = CIRCLE ( 'NONE', #316, 1.600000000000012967 ) ;
#115 = CARTESIAN_POINT ( 'NONE',  ( 28.60000000000000142, 0.0000000000000000000, 0.0000000000000000000 ) ) ;
#116 = ADVANCED_FACE ( 'NONE', ( #177 ), #278, .F. ) ;
#117 = CARTESIAN_POINT ( 'NONE',  ( 28.60000000000000142, 60.00000000000000000, 0.0000000000000000000 ) ) ;
#118 = ORIENTED_EDGE ( 'NONE', *, *, #32, .F. ) ;
#119 = EDGE_LOOP ( 'NONE', ( #96, #139, #334, #348 ) ) ;
#120 = CARTESIAN_POINT ( 'NONE',  ( 0.0000000000000000000, 0.0000000000000000000, -1.500000000000000000 ) ) ;
#121 = CARTESIAN_POINT ( 'NONE',  ( 4.900000000000013678, 57.00000000000000000, 0.0000000000000000000 ) ) ;
#122 = CARTESIAN_POINT ( 'NONE',  ( 26.90000000000001279, 3.000000000000002665, 3.918740332231606832E-16 ) ) ;
#123 = VECTOR ( 'NONE', #317, 1000.000000000000000 ) ;
#124 = STYLED_ITEM ( 'NONE', ( #20 ), #175 ) ;
#125 = STYLED_ITEM ( 'NONE', ( #67 ), #312 ) ;
#126 = CARTESIAN_POINT ( 'NONE',  ( 23.69999999999998508, 3.000000000000002665, -1.499999999999999556 ) ) ;
#127 = EDGE_LOOP ( 'NONE', ( #206, #153, #162, #276 ) ) ;
#128 = CARTESIAN_POINT ( 'NONE',  ( 28.60000000000000142, 0.0000000000000000000, -1.500000000000000000 ) ) ;
#129 = DIRECTION ( 'NONE',  ( 0.0000000000000000000, 1.000000000000000000, 0.0000000000000000000 ) ) ;
#130 = FACE_OUTER_BOUND ( 'NONE', #350, .T. ) ;
#131 = AXIS2_PLACEMENT_3D ( 'NONE', #209, #256, #342 ) ;
#132 = SHAPE_DEFINITION_REPRESENTATION ( #47, #175 ) ;
#133 = ORIENTED_EDGE ( 'NONE', *, *, #1, .T. ) ;
#134 = EDGE_LOOP ( 'NONE', ( #322, #68 ) ) ;
#135 = DIRECTION ( 'NONE',  ( 1.000000000000000000, 0.0000000000000000000, 0.0000000000000000000 ) ) ;
#136 = AXIS2_PLACEMENT_3D ( 'NONE', #266, #241, #197 ) ;
#137 = CARTESIAN_POINT ( 'NONE',  ( 3.300000000000000711, 57.00000000000000000, -1.499999999999999556 ) ) ;
#138 = SURFACE_STYLE_FILL_AREA ( #23 ) ;
#139 = ORIENTED_EDGE ( 'NONE', *, *, #338, .T. ) ;
#140 = DIRECTION ( 'NONE',  ( -0.0000000000000000000, -0.0000000000000000000, 1.000000000000000000 ) ) ;
#141 = MECHANICAL_DESIGN_GEOMETRIC_PRESENTATION_REPRESENTATION (  '', ( #124 ), #306 ) ;
#142 = ADVANCED_FACE ( 'NONE', ( #349 ), #171, .T. ) ;
#143 = AXIS2_PLACEMENT_3D ( 'NONE', #110, #83, #268 ) ;
#144 = DIRECTION ( 'NONE',  ( -0.0000000000000000000, -0.0000000000000000000, 1.000000000000000000 ) ) ;
#145 = ORIENTED_EDGE ( 'NONE', *, *, #296, .T. ) ;
#146 = ORIENTED_EDGE ( 'NONE', *, *, #99, .T. ) ;
#147 = PLANE ( 'NONE',  #188 ) ;
#148 = CARTESIAN_POINT ( 'NONE',  ( 0.0000000000000000000, 0.0000000000000000000, -1.500000000000000000 ) ) ;
#149 = DIRECTION ( 'NONE',  ( -0.0000000000000000000, -0.0000000000000000000, 1.000000000000000000 ) ) ;
#150 = FACE_OUTER_BOUND ( 'NONE', #182, .T. ) ;
#151 = VERTEX_POINT ( 'NONE', #64 ) ;
#152 = LINE ( 'NONE', #173, #169 ) ;
#153 = ORIENTED_EDGE ( 'NONE', *, *, #10, .F. ) ;
#154 = PRODUCT ( '2487~6', '2487~6', '', ( #236 ) ) ;
#155 = FILL_AREA_STYLE ('',( #281 ) ) ;
#156 = CYLINDRICAL_SURFACE ( 'NONE', #318, 1.600000000000014522 ) ;
#157 = EDGE_CURVE ( 'NONE', #331, #332, #95, .T. ) ;
#158 = CARTESIAN_POINT ( 'NONE',  ( 23.69999999999998508, 3.000000000000002665, 0.0000000000000000000 ) ) ;
#159 = AXIS2_PLACEMENT_3D ( 'NONE', #321, #49, #292 ) ;
#160 = COLOUR_RGB ( '',1.000000000000000000, 1.000000000000000000, 1.000000000000000000 ) ;
#161 = CIRCLE ( 'NONE', #203, 1.600000000000012967 ) ;
#162 = ORIENTED_EDGE ( 'NONE', *, *, #231, .T. ) ;
#163 = AXIS2_PLACEMENT_3D ( 'NONE', #73, #74, #46 ) ;
#164 = DIRECTION ( 'NONE',  ( 1.000000000000000000, 0.0000000000000000000, 0.0000000000000000000 ) ) ;
#165 = PLANE ( 'NONE',  #136 ) ;
#166 = ADVANCED_FACE ( 'NONE', ( #275, #246, #186 ), #221, .F. ) ;
#167 = CARTESIAN_POINT ( 'NONE',  ( 0.0000000000000000000, 0.0000000000000000000, -1.500000000000000000 ) ) ;
#168 = CIRCLE ( 'NONE', #77, 1.600000000000014522 ) ;
#169 = VECTOR ( 'NONE', #200, 1000.000000000000000 ) ;
#170 = DIRECTION ( 'NONE',  ( 1.000000000000000000, 0.0000000000000000000, 0.0000000000000000000 ) ) ;
#171 = PLANE ( 'NONE',  #57 ) ;
#172 = CARTESIAN_POINT ( 'NONE',  ( 28.60000000000000142, 60.00000000000000000, -1.500000000000000000 ) ) ;
#173 = CARTESIAN_POINT ( 'NONE',  ( 28.60000000000000142, 0.0000000000000000000, -1.500000000000000000 ) ) ;
#174 = ORIENTED_EDGE ( 'NONE', *, *, #176, .F. ) ;
#175 = ADVANCED_BREP_SHAPE_REPRESENTATION ( '2487~6', ( #312, #159 ), #69 ) ;
#176 = EDGE_CURVE ( 'NONE', #270, #346, #168, .T. ) ;
#177 = FACE_OUTER_BOUND ( 'NONE', #313, .T. ) ;
#178 = CIRCLE ( 'NONE', #51, 1.600000000000014522 ) ;
#179 = PRESENTATION_LAYER_ASSIGNMENT (  '', '', ( #125 ) ) ;
#180 = PLANE ( 'NONE',  #131 ) ;
#181 = FACE_BOUND ( 'NONE', #219, .T. ) ;
#182 = EDGE_LOOP ( 'NONE', ( #97, #191, #133, #12 ) ) ;
#183 = CARTESIAN_POINT ( 'NONE',  ( 28.60000000000000142, 0.0000000000000000000, -1.500000000000000000 ) ) ;
#184 = CARTESIAN_POINT ( 'NONE',  ( 4.900000000000013678, 57.00000000000000000, -1.499999999999999556 ) ) ;
#185 = DIRECTION ( 'NONE',  ( -1.000000000000000000, -0.0000000000000000000, -0.0000000000000000000 ) ) ;
#186 = FACE_OUTER_BOUND ( 'NONE', #119, .T. ) ;
#187 = CIRCLE ( 'NONE', #143, 1.600000000000014522 ) ;
#188 = AXIS2_PLACEMENT_3D ( 'NONE', #199, #7, #330 ) ;
#189 = APPLICATION_CONTEXT ( 'automotive_design' ) ;
#190 = VERTEX_POINT ( 'NONE', #115 ) ;
#191 = ORIENTED_EDGE ( 'NONE', *, *, #248, .F. ) ;
#192 = CARTESIAN_POINT ( 'NONE',  ( 0.0000000000000000000, 60.00000000000000000, -1.500000000000000000 ) ) ;
#193 = ADVANCED_FACE ( 'NONE', ( #196 ), #147, .T. ) ;
#194 = AXIS2_PLACEMENT_3D ( 'NONE', #2, #243, #164 ) ;
#195 = DIRECTION ( 'NONE',  ( -0.0000000000000000000, -0.0000000000000000000, 1.000000000000000000 ) ) ;
#196 = FACE_OUTER_BOUND ( 'NONE', #293, .T. ) ;
#197 = DIRECTION ( 'NONE',  ( -1.000000000000000000, 0.0000000000000000000, -0.0000000000000000000 ) ) ;
#198 = CYLINDRICAL_SURFACE ( 'NONE', #277, 1.600000000000012967 ) ;
#199 = CARTESIAN_POINT ( 'NONE',  ( 0.0000000000000000000, 0.0000000000000000000, -1.500000000000000000 ) ) ;
#200 = DIRECTION ( 'NONE',  ( 0.0000000000000000000, 1.000000000000000000, 0.0000000000000000000 ) ) ;
#201 = ORIENTED_EDGE ( 'NONE', *, *, #29, .F. ) ;
#202 = LINE ( 'NONE', #234, #123 ) ;
#203 = AXIS2_PLACEMENT_3D ( 'NONE', #27, #297, #135 ) ;
#204 = APPLICATION_CONTEXT ( 'automotive_design' ) ;
#205 = ORIENTED_EDGE ( 'NONE', *, *, #320, .T. ) ;
#206 = ORIENTED_EDGE ( 'NONE', *, *, #296, .F. ) ;
#207 =( NAMED_UNIT ( * ) SI_UNIT ( $, .STERADIAN. ) SOLID_ANGLE_UNIT ( ) );
#208 = DIRECTION ( 'NONE',  ( -0.0000000000000000000, -0.0000000000000000000, 1.000000000000000000 ) ) ;
#209 = CARTESIAN_POINT ( 'NONE',  ( 28.60000000000000142, 0.0000000000000000000, -1.500000000000000000 ) ) ;
#210 = AXIS2_PLACEMENT_3D ( 'NONE', #81, #299, #170 ) ;
#211 = COLOUR_RGB ( '',1.000000000000000000, 1.000000000000000000, 1.000000000000000000 ) ;
#212 = ORIENTED_EDGE ( 'NONE', *, *, #176, .T. ) ;
#213 = CARTESIAN_POINT ( 'NONE',  ( 26.90000000000001279, 3.000000000000002665, -1.499999999999999556 ) ) ;
#214 = VECTOR ( 'NONE', #100, 1000.000000000000000 ) ;
#215 = VERTEX_POINT ( 'NONE', #117 ) ;
#216 = LINE ( 'NONE', #104, #214 ) ;
#217 = VERTEX_POINT ( 'NONE', #172 ) ;
#218 = LINE ( 'NONE', #167, #260 ) ;
#219 = EDGE_LOOP ( 'NONE', ( #326, #212 ) ) ;
#220 = ADVANCED_FACE ( 'NONE', ( #48 ), #105, .F. ) ;
#221 = PLANE ( 'NONE',  #94 ) ;
#222 = DIRECTION ( 'NONE',  ( 0.0000000000000000000, 1.000000000000000000, 0.0000000000000000000 ) ) ;
#223 = DIRECTION ( 'NONE',  ( 1.000000000000000000, 0.0000000000000000000, 0.0000000000000000000 ) ) ;
#224 = VECTOR ( 'NONE', #284, 1000.000000000000000 ) ;
#225 = ORIENTED_EDGE ( 'NONE', *, *, #89, .T. ) ;
#226 = DIRECTION ( 'NONE',  ( 0.0000000000000000000, 0.0000000000000000000, -1.000000000000000000 ) ) ;
#227 = AXIS2_PLACEMENT_3D ( 'NONE', #249, #59, #302 ) ;
#228 =( GEOMETRIC_REPRESENTATION_CONTEXT ( 3 ) GLOBAL_UNCERTAINTY_ASSIGNED_CONTEXT ( ( #245 ) ) GLOBAL_UNIT_ASSIGNED_CONTEXT ( ( #315, #341, #207 ) ) REPRESENTATION_CONTEXT ( 'NONE', 'WORKASPACE' ) );
#229 = LINE ( 'NONE', #183, #3 ) ;
#230 = VERTEX_POINT ( 'NONE', #184 ) ;
#231 = EDGE_CURVE ( 'NONE', #346, #109, #261, .T. ) ;
#232 = CARTESIAN_POINT ( 'NONE',  ( 26.90000000000001279, 3.000000000000002665, 0.0000000000000000000 ) ) ;
#233 = DIRECTION ( 'NONE',  ( -0.0000000000000000000, -0.0000000000000000000, 1.000000000000000000 ) ) ;
#234 = CARTESIAN_POINT ( 'NONE',  ( 0.0000000000000000000, 0.0000000000000000000, 0.0000000000000000000 ) ) ;
#235 = VERTEX_POINT ( 'NONE', #102 ) ;
#236 = PRODUCT_CONTEXT ( 'NONE', #204, 'mechanical' ) ;
#237 = LINE ( 'NONE', #158, #31 ) ;
#238 = FACE_OUTER_BOUND ( 'NONE', #108, .T. ) ;
#239 = ORIENTED_EDGE ( 'NONE', *, *, #8, .T. ) ;
#240 = ORIENTED_EDGE ( 'NONE', *, *, #25, .F. ) ;
#241 = DIRECTION ( 'NONE',  ( 0.0000000000000000000, 0.0000000000000000000, -1.000000000000000000 ) ) ;
#242 = ORIENTED_EDGE ( 'NONE', *, *, #6, .T. ) ;
#243 = DIRECTION ( 'NONE',  ( -0.0000000000000000000, -0.0000000000000000000, 1.000000000000000000 ) ) ;
#244 = CARTESIAN_POINT ( 'NONE',  ( 0.0000000000000000000, 0.0000000000000000000, -1.500000000000000000 ) ) ;
#245 = UNCERTAINTY_MEASURE_WITH_UNIT (LENGTH_MEASURE( 1.000000000000000082E-05 ), #315, 'distance_accuracy_value', 'NONE');
#246 = FACE_BOUND ( 'NONE', #337, .T. ) ;
#247 = DIRECTION ( 'NONE',  ( 1.000000000000000000, 0.0000000000000000000, 0.0000000000000000000 ) ) ;
#248 = EDGE_CURVE ( 'NONE', #217, #215, #216, .T. ) ;
#249 = CARTESIAN_POINT ( 'NONE',  ( 3.300000000000000711, 57.00000000000000000, 3.918740332231606832E-16 ) ) ;
#250 = CIRCLE ( 'NONE', #194, 1.600000000000014522 ) ;
#251 = EDGE_LOOP ( 'NONE', ( #71, #255, #283, #205 ) ) ;
#252 = DIRECTION ( 'NONE',  ( 1.000000000000000000, 0.0000000000000000000, 0.0000000000000000000 ) ) ;
#253 = FACE_BOUND ( 'NONE', #262, .T. ) ;
#254 = ORIENTED_EDGE ( 'NONE', *, *, #25, .T. ) ;
#255 = ORIENTED_EDGE ( 'NONE', *, *, #6, .F. ) ;
#256 = DIRECTION ( 'NONE',  ( 1.000000000000000000, 0.0000000000000000000, 0.0000000000000000000 ) ) ;
#257 = CARTESIAN_POINT ( 'NONE',  ( 0.0000000000000000000, 0.0000000000000000000, 0.0000000000000000000 ) ) ;
#258 = FILL_AREA_STYLE_COLOUR ( '', #211 ) ;
#259 = LINE ( 'NONE', #273, #288 ) ;
#260 = VECTOR ( 'NONE', #53, 1000.000000000000000 ) ;
#261 = LINE ( 'NONE', #232, #70 ) ;
#262 = EDGE_LOOP ( 'NONE', ( #280, #254 ) ) ;
#263 = VERTEX_POINT ( 'NONE', #17 ) ;
#264 = ADVANCED_FACE ( 'NONE', ( #282 ), #180, .T. ) ;
#265 = DIRECTION ( 'NONE',  ( -0.0000000000000000000, -0.0000000000000000000, 1.000000000000000000 ) ) ;
#266 = CARTESIAN_POINT ( 'NONE',  ( 0.0000000000000000000, 60.00000000000000000, -1.500000000000000000 ) ) ;
#267 = MECHANICAL_DESIGN_GEOMETRIC_PRESENTATION_REPRESENTATION (  '', ( #125 ), #228 ) ;
#268 = DIRECTION ( 'NONE',  ( 1.000000000000000000, 0.0000000000000000000, 0.0000000000000000000 ) ) ;
#269 = DIRECTION ( 'NONE',  ( -0.0000000000000000000, -1.000000000000000000, -0.0000000000000000000 ) ) ;
#270 = VERTEX_POINT ( 'NONE', #126 ) ;
#271 = ORIENTED_EDGE ( 'NONE', *, *, #1, .F. ) ;
#272 = UNCERTAINTY_MEASURE_WITH_UNIT (LENGTH_MEASURE( 1.000000000000000082E-05 ), #319, 'distance_accuracy_value', 'NONE');
#273 = CARTESIAN_POINT ( 'NONE',  ( 28.60000000000000142, 0.0000000000000000000, 0.0000000000000000000 ) ) ;
#274 = CARTESIAN_POINT ( 'NONE',  ( 25.30000000000000071, 3.000000000000002665, -1.499999999999999556 ) ) ;
#275 = FACE_BOUND ( 'NONE', #134, .T. ) ;
#276 = ORIENTED_EDGE ( 'NONE', *, *, #82, .T. ) ;
#277 = AXIS2_PLACEMENT_3D ( 'NONE', #294, #140, #252 ) ;
#278 = CYLINDRICAL_SURFACE ( 'NONE', #19, 1.600000000000012967 ) ;
#279 = ORIENTED_EDGE ( 'NONE', *, *, #65, .T. ) ;
#280 = ORIENTED_EDGE ( 'NONE', *, *, #41, .T. ) ;
#281 = FILL_AREA_STYLE_COLOUR ( '', #160 ) ;
#282 = FACE_OUTER_BOUND ( 'NONE', #21, .T. ) ;
#283 = ORIENTED_EDGE ( 'NONE', *, *, #45, .T. ) ;
#284 = DIRECTION ( 'NONE',  ( 0.0000000000000000000, 0.0000000000000000000, 1.000000000000000000 ) ) ;
#285 =( NAMED_UNIT ( * ) PLANE_ANGLE_UNIT ( ) SI_UNIT ( $, .RADIAN. ) );
#286 = APPLICATION_PROTOCOL_DEFINITION ( 'draft international standard', 'automotive_design', 1998, #204 ) ;
#287 = AXIS2_PLACEMENT_3D ( 'NONE', #40, #129, #310 ) ;
#288 = VECTOR ( 'NONE', #222, 1000.000000000000000 ) ;
#289 = LINE ( 'NONE', #298, #303 ) ;
#290 = VERTEX_POINT ( 'NONE', #128 ) ;
#291 = SURFACE_SIDE_STYLE ('',( #138 ) ) ;
#292 = DIRECTION ( 'NONE',  ( 1.000000000000000000, 0.0000000000000000000, 0.0000000000000000000 ) ) ;
#293 = EDGE_LOOP ( 'NONE', ( #80, #300, #28, #242 ) ) ;
#294 = CARTESIAN_POINT ( 'NONE',  ( 3.300000000000000711, 57.00000000000000000, 0.0000000000000000000 ) ) ;
#295 = ADVANCED_FACE ( 'NONE', ( #150 ), #18, .T. ) ;
#296 = EDGE_CURVE ( 'NONE', #270, #151, #237, .T. ) ;
#297 = DIRECTION ( 'NONE',  ( -0.0000000000000000000, -0.0000000000000000000, 1.000000000000000000 ) ) ;
#298 = CARTESIAN_POINT ( 'NONE',  ( 1.699999999999987965, 57.00000000000000000, 0.0000000000000000000 ) ) ;
#299 = DIRECTION ( 'NONE',  ( -0.0000000000000000000, -0.0000000000000000000, 1.000000000000000000 ) ) ;
#300 = ORIENTED_EDGE ( 'NONE', *, *, #327, .F. ) ;
#301 = CARTESIAN_POINT ( 'NONE',  ( 3.300000000000000711, 57.00000000000000000, 0.0000000000000000000 ) ) ;
#302 = DIRECTION ( 'NONE',  ( 1.000000000000000000, 0.0000000000000000000, 0.0000000000000000000 ) ) ;
#303 = VECTOR ( 'NONE', #265, 1000.000000000000000 ) ;
#304 = CLOSED_SHELL ( 'NONE', ( #116, #329, #193, #295, #264, #142, #26, #166, #220, #54 ) ) ;
#305 = DIRECTION ( 'NONE',  ( -0.0000000000000000000, -1.000000000000000000, -0.0000000000000000000 ) ) ;
#306 =( GEOMETRIC_REPRESENTATION_CONTEXT ( 3 ) GLOBAL_UNCERTAINTY_ASSIGNED_CONTEXT ( ( #272 ) ) GLOBAL_UNIT_ASSIGNED_CONTEXT ( ( #319, #50, #347 ) ) REPRESENTATION_CONTEXT ( 'NONE', 'WORKASPACE' ) );
#307 = VECTOR ( 'NONE', #185, 1000.000000000000000 ) ;
#308 = ORIENTED_EDGE ( 'NONE', *, *, #32, .T. ) ;
#309 = PRODUCT_DEFINITION_CONTEXT ( 'detailed design', #189, 'design' ) ;
#310 = DIRECTION ( 'NONE',  ( 0.0000000000000000000, -0.0000000000000000000, 1.000000000000000000 ) ) ;
#311 = CARTESIAN_POINT ( 'NONE',  ( 25.30000000000000071, 3.000000000000002665, 0.0000000000000000000 ) ) ;
#312 = MANIFOLD_SOLID_BREP ( 'Ø3.2', #304 ) ;
#313 = EDGE_LOOP ( 'NONE', ( #240, #22, #146, #90 ) ) ;
#314 = CARTESIAN_POINT ( 'NONE',  ( 0.0000000000000000000, 60.00000000000000000, -1.500000000000000000 ) ) ;
#315 =( LENGTH_UNIT ( ) NAMED_UNIT ( * ) SI_UNIT ( .MILLI., .METRE. ) );
#316 = AXIS2_PLACEMENT_3D ( 'NONE', #137, #195, #113 ) ;
#317 = DIRECTION ( 'NONE',  ( 1.000000000000000000, 0.0000000000000000000, 0.0000000000000000000 ) ) ;
#318 = AXIS2_PLACEMENT_3D ( 'NONE', #311, #208, #44 ) ;
#319 =( LENGTH_UNIT ( ) NAMED_UNIT ( * ) SI_UNIT ( .MILLI., .METRE. ) );
#320 = EDGE_CURVE ( 'NONE', #290, #190, #229, .T. ) ;
#321 = CARTESIAN_POINT ( 'NONE',  ( 0.0000000000000000000, 0.0000000000000000000, 0.0000000000000000000 ) ) ;
#322 = ORIENTED_EDGE ( 'NONE', *, *, #8, .F. ) ;
#323 = ORIENTED_EDGE ( 'NONE', *, *, #248, .T. ) ;
#324 = APPLICATION_PROTOCOL_DEFINITION ( 'draft international standard', 'automotive_design', 1998, #189 ) ;
#325 = PRODUCT_RELATED_PRODUCT_CATEGORY ( 'part', '', ( #154 ) ) ;
#326 = ORIENTED_EDGE ( 'NONE', *, *, #10, .T. ) ;
#327 = EDGE_CURVE ( 'NONE', #52, #331, #343, .T. ) ;
#328 = UNCERTAINTY_MEASURE_WITH_UNIT (LENGTH_MEASURE( 1.000000000000000082E-05 ), #76, 'distance_accuracy_value', 'NONE');
#329 = ADVANCED_FACE ( 'NONE', ( #130 ), #156, .F. ) ;
#330 = DIRECTION ( 'NONE',  ( 0.0000000000000000000, 0.0000000000000000000, 1.000000000000000000 ) ) ;
#331 = VERTEX_POINT ( 'NONE', #75 ) ;
#332 = VERTEX_POINT ( 'NONE', #257 ) ;
#333 = CIRCLE ( 'NONE', #227, 1.600000000000012967 ) ;
#334 = ORIENTED_EDGE ( 'NONE', *, *, #107, .T. ) ;
#335 = PRODUCT_DEFINITION ( 'UNKNOWN', '', #85, #309 ) ;
#336 = VECTOR ( 'NONE', #269, 1000.000000000000000 ) ;
#337 = EDGE_LOOP ( 'NONE', ( #16, #118 ) ) ;
#338 = EDGE_CURVE ( 'NONE', #332, #190, #202, .T. ) ;
#339 = ORIENTED_EDGE ( 'NONE', *, *, #62, .F. ) ;
#340 = SURFACE_SIDE_STYLE ('',( #87 ) ) ;
#341 =( NAMED_UNIT ( * ) PLANE_ANGLE_UNIT ( ) SI_UNIT ( $, .RADIAN. ) );
#342 = DIRECTION ( 'NONE',  ( 0.0000000000000000000, 0.0000000000000000000, -1.000000000000000000 ) ) ;
#343 = LINE ( 'NONE', #314, #224 ) ;
#344 = ORIENTED_EDGE ( 'NONE', *, *, #41, .F. ) ;
#345 = EDGE_CURVE ( 'NONE', #215, #331, #78, .T. ) ;
#346 = VERTEX_POINT ( 'NONE', #213 ) ;
#347 =( NAMED_UNIT ( * ) SI_UNIT ( $, .STERADIAN. ) SOLID_ANGLE_UNIT ( ) );
#348 = ORIENTED_EDGE ( 'NONE', *, *, #345, .T. ) ;
#349 = FACE_OUTER_BOUND ( 'NONE', #251, .T. ) ;
#350 = EDGE_LOOP ( 'NONE', ( #174, #145, #308, #9 ) ) ;
ENDSEC;
END-ISO-10303-21;
