ISO-10303-21;
HEADER;
FILE_DESCRIPTION (( 'STEP AP214' ),
    '1' );
FILE_NAME ('23503~3.STEP',
    '2019-01-25T13:22:48',
    ( '' ),
    ( '' ),
    'SwSTEP 2.0',
    'SolidWorks 2018',
    '' );
FILE_SCHEMA (( 'AUTOMOTIVE_DESIGN' ));
ENDSEC;

DATA;
#1 = CARTESIAN_POINT ( 'NONE',  ( 0.0000000000000000000, 16.00000000000000000, 0.0000000000000000000 ) ) ;
#2 = CARTESIAN_POINT ( 'NONE',  ( 1.775737858763661916E-16, 16.00000000000000000, -1.449999999999999956 ) ) ;
#3 = LINE ( 'NONE', #19, #82 ) ;
#4 = CARTESIAN_POINT ( 'NONE',  ( 0.0000000000000000000, 0.0000000000000000000, 0.0000000000000000000 ) ) ;
#5 = EDGE_CURVE ( 'NONE', #110, #130, #57, .T. ) ;
#6 =( GEOMETRIC_REPRESENTATION_CONTEXT ( 3 ) GLOBAL_UNCERTAINTY_ASSIGNED_CONTEXT ( ( #73 ) ) GLOBAL_UNIT_ASSIGNED_CONTEXT ( ( #212, #62, #138 ) ) REPRESENTATION_CONTEXT ( 'NONE', 'WORKASPACE' ) );
#7 = ADVANCED_FACE ( 'NONE', ( #209 ), #152, .T. ) ;
#8 = DIRECTION ( 'NONE',  ( -0.0000000000000000000, 1.000000000000000000, -0.0000000000000000000 ) ) ;
#9 = SHAPE_DEFINITION_REPRESENTATION ( #174, #210 ) ;
#10 = CARTESIAN_POINT ( 'NONE',  ( 2.388061258337343080E-16, 20.00000000000000000, -1.950000000000003508 ) ) ;
#11 = ORIENTED_EDGE ( 'NONE', *, *, #85, .F. ) ;
#12 = CARTESIAN_POINT ( 'NONE',  ( 0.0000000000000000000, 20.00000000000000000, 0.0000000000000000000 ) ) ;
#13 = ORIENTED_EDGE ( 'NONE', *, *, #68, .F. ) ;
#14 = CARTESIAN_POINT ( 'NONE',  ( 0.0000000000000000000, 20.00000000000000000, 0.0000000000000000000 ) ) ;
#15 = CIRCLE ( 'NONE', #158, 1.449999999999999956 ) ;
#16 = ORIENTED_EDGE ( 'NONE', *, *, #160, .F. ) ;
#17 = ORIENTED_EDGE ( 'NONE', *, *, #199, .F. ) ;
#18 = AXIS2_PLACEMENT_3D ( 'NONE', #86, #314, #35 ) ;
#19 = CARTESIAN_POINT ( 'NONE',  ( 1.775737858763661916E-16, 19.50000000000000355, -1.449999999999999956 ) ) ;
#20 = EDGE_CURVE ( 'NONE', #144, #88, #272, .T. ) ;
#21 = DIRECTION ( 'NONE',  ( -0.0000000000000000000, -1.000000000000000000, -0.0000000000000000000 ) ) ;
#22 = AXIS2_PLACEMENT_3D ( 'NONE', #64, #257, #114 ) ;
#23 = ORIENTED_EDGE ( 'NONE', *, *, #5, .F. ) ;
#24 = APPLICATION_CONTEXT ( 'automotive_design' ) ;
#25 = CARTESIAN_POINT ( 'NONE',  ( 1.775737858763661916E-16, 19.50000000000000355, -1.449999999999999956 ) ) ;
#26 = ORIENTED_EDGE ( 'NONE', *, *, #85, .T. ) ;
#27 = PRESENTATION_LAYER_ASSIGNMENT (  '', '', ( #292 ) ) ;
#28 = CIRCLE ( 'NONE', #163, 2.999999999999999112 ) ;
#29 = CARTESIAN_POINT ( 'NONE',  ( 0.0000000000000000000, 16.00000000000000000, 0.0000000000000000000 ) ) ;
#30 = EDGE_CURVE ( 'NONE', #144, #146, #28, .T. ) ;
#31 = ORIENTED_EDGE ( 'NONE', *, *, #298, .F. ) ;
#32 = AXIS2_PLACEMENT_3D ( 'NONE', #1, #121, #320 ) ;
#33 = DIRECTION ( 'NONE',  ( -0.0000000000000000000, 1.000000000000000000, -0.0000000000000000000 ) ) ;
#34 = DIRECTION ( 'NONE',  ( 8.659560562354979697E-17, 0.7071067811865436870, -0.7071067811865513475 ) ) ;
#35 = DIRECTION ( 'NONE',  ( 0.0000000000000000000, -0.0000000000000000000, 1.000000000000000000 ) ) ;
#36 =( NAMED_UNIT ( * ) SI_UNIT ( $, .STERADIAN. ) SOLID_ANGLE_UNIT ( ) );
#37 = CIRCLE ( 'NONE', #171, 2.999999999999999112 ) ;
#38 = ORIENTED_EDGE ( 'NONE', *, *, #160, .T. ) ;
#39 = SURFACE_STYLE_FILL_AREA ( #281 ) ;
#40 = DIRECTION ( 'NONE',  ( -0.0000000000000000000, 1.000000000000000000, -0.0000000000000000000 ) ) ;
#41 = DIRECTION ( 'NONE',  ( 0.0000000000000000000, 0.0000000000000000000, 1.000000000000000000 ) ) ;
#42 = EDGE_CURVE ( 'NONE', #130, #110, #72, .T. ) ;
#43 = FACE_BOUND ( 'NONE', #249, .T. ) ;
#44 = EDGE_LOOP ( 'NONE', ( #133, #61, #31, #11 ) ) ;
#45 = VERTEX_POINT ( 'NONE', #25 ) ;
#46 = DIRECTION ( 'NONE',  ( 0.0000000000000000000, 1.000000000000000000, 0.0000000000000000000 ) ) ;
#47 = ADVANCED_FACE ( 'NONE', ( #214 ), #109, .F. ) ;
#48 = DIRECTION ( 'NONE',  ( 0.0000000000000000000, 0.0000000000000000000, -1.000000000000000000 ) ) ;
#49 = CARTESIAN_POINT ( 'NONE',  ( 0.0000000000000000000, 20.00000000000000000, 0.0000000000000000000 ) ) ;
#50 = CARTESIAN_POINT ( 'NONE',  ( 0.0000000000000000000, 19.50000000000000355, 0.0000000000000000000 ) ) ;
#51 = CONICAL_SURFACE ( 'NONE', #242, 1.449999999999999956, 0.7853981633974549403 ) ;
#52 = DIRECTION ( 'NONE',  ( 0.0000000000000000000, 1.000000000000000000, 0.0000000000000000000 ) ) ;
#53 = CIRCLE ( 'NONE', #119, 2.999999999999999112 ) ;
#54 = ORIENTED_EDGE ( 'NONE', *, *, #238, .T. ) ;
#55 = CARTESIAN_POINT ( 'NONE',  ( 0.0000000000000000000, 0.1999999999999987899, 2.999999999999999112 ) ) ;
#56 = CYLINDRICAL_SURFACE ( 'NONE', #76, 1.449999999999999956 ) ;
#57 = CIRCLE ( 'NONE', #107, 2.799999999999998046 ) ;
#58 = EDGE_LOOP ( 'NONE', ( #118, #140 ) ) ;
#59 = DIRECTION ( 'NONE',  ( -0.0000000000000000000, 1.000000000000000000, -0.0000000000000000000 ) ) ;
#60 = AXIS2_PLACEMENT_3D ( 'NONE', #14, #198, #48 ) ;
#61 = ORIENTED_EDGE ( 'NONE', *, *, #308, .T. ) ;
#62 =( NAMED_UNIT ( * ) PLANE_ANGLE_UNIT ( ) SI_UNIT ( $, .RADIAN. ) );
#63 = ORIENTED_EDGE ( 'NONE', *, *, #298, .T. ) ;
#64 = CARTESIAN_POINT ( 'NONE',  ( 0.0000000000000000000, 0.0000000000000000000, 0.0000000000000000000 ) ) ;
#65 = CARTESIAN_POINT ( 'NONE',  ( 0.0000000000000000000, 16.00000000000000000, 1.449999999999999956 ) ) ;
#66 = CARTESIAN_POINT ( 'NONE',  ( 0.0000000000000000000, 20.00000000000000000, -2.999999999999999112 ) ) ;
#67 = ADVANCED_FACE ( 'NONE', ( #319 ), #51, .F. ) ;
#68 = EDGE_CURVE ( 'NONE', #250, #88, #302, .T. ) ;
#69 = CARTESIAN_POINT ( 'NONE',  ( 0.0000000000000000000, 20.00000000000000000, 0.0000000000000000000 ) ) ;
#70 = DIRECTION ( 'NONE',  ( 0.0000000000000000000, 0.0000000000000000000, 1.000000000000000000 ) ) ;
#71 = FACE_OUTER_BOUND ( 'NONE', #311, .T. ) ;
#72 = CIRCLE ( 'NONE', #104, 2.799999999999998046 ) ;
#73 = UNCERTAINTY_MEASURE_WITH_UNIT (LENGTH_MEASURE( 1.000000000000000082E-05 ), #212, 'distance_accuracy_value', 'NONE');
#74 = DIRECTION ( 'NONE',  ( 0.0000000000000000000, 0.0000000000000000000, 1.000000000000000000 ) ) ;
#75 = ADVANCED_FACE ( 'NONE', ( #98 ), #81, .T. ) ;
#76 = AXIS2_PLACEMENT_3D ( 'NONE', #29, #123, #301 ) ;
#77 = DIRECTION ( 'NONE',  ( -0.0000000000000000000, -1.000000000000000000, -0.0000000000000000000 ) ) ;
#78 = DIRECTION ( 'NONE',  ( 0.0000000000000000000, 1.000000000000000000, 0.0000000000000000000 ) ) ;
#79 = DIRECTION ( 'NONE',  ( 0.0000000000000000000, 0.0000000000000000000, 1.000000000000000000 ) ) ;
#80 = CARTESIAN_POINT ( 'NONE',  ( 0.0000000000000000000, 19.50000000000000355, 0.0000000000000000000 ) ) ;
#81 = PLANE ( 'NONE',  #18 ) ;
#82 = VECTOR ( 'NONE', #296, 1000.000000000000114 ) ;
#83 = PRODUCT_DEFINITION_FORMATION_WITH_SPECIFIED_SOURCE ( 'ANY', '', #291, .NOT_KNOWN. ) ;
#84 = ORIENTED_EDGE ( 'NONE', *, *, #101, .F. ) ;
#85 = EDGE_CURVE ( 'NONE', #129, #206, #236, .T. ) ;
#86 = CARTESIAN_POINT ( 'NONE',  ( 0.0000000000000000000, 16.00000000000000000, 0.0000000000000000000 ) ) ;
#87 = PRESENTATION_STYLE_ASSIGNMENT (( #145 ) ) ;
#88 = VERTEX_POINT ( 'NONE', #241 ) ;
#89 = EDGE_LOOP ( 'NONE', ( #169, #231, #162, #263 ) ) ;
#90 =( LENGTH_UNIT ( ) NAMED_UNIT ( * ) SI_UNIT ( .MILLI., .METRE. ) );
#91 = FILL_AREA_STYLE ('',( #237 ) ) ;
#92 = CARTESIAN_POINT ( 'NONE',  ( 0.0000000000000000000, 19.50000000000000355, 1.449999999999999956 ) ) ;
#93 = ORIENTED_EDGE ( 'NONE', *, *, #276, .T. ) ;
#94 = CARTESIAN_POINT ( 'NONE',  ( 0.0000000000000000000, 0.0000000000000000000, 2.799999999999998046 ) ) ;
#95 = DIRECTION ( 'NONE',  ( -0.0000000000000000000, -1.000000000000000000, -0.0000000000000000000 ) ) ;
#96 =( GEOMETRIC_REPRESENTATION_CONTEXT ( 3 ) GLOBAL_UNCERTAINTY_ASSIGNED_CONTEXT ( ( #188 ) ) GLOBAL_UNIT_ASSIGNED_CONTEXT ( ( #139, #295, #216 ) ) REPRESENTATION_CONTEXT ( 'NONE', 'WORKASPACE' ) );
#97 = DIRECTION ( 'NONE',  ( -0.0000000000000000000, -1.000000000000000000, -0.0000000000000000000 ) ) ;
#98 = FACE_OUTER_BOUND ( 'NONE', #177, .T. ) ;
#99 = CARTESIAN_POINT ( 'NONE',  ( 0.0000000000000000000, 0.0000000000000000000, 0.0000000000000000000 ) ) ;
#100 = CARTESIAN_POINT ( 'NONE',  ( 0.0000000000000000000, 20.00000000000000000, 0.0000000000000000000 ) ) ;
#101 = EDGE_CURVE ( 'NONE', #110, #250, #306, .T. ) ;
#102 = FACE_OUTER_BOUND ( 'NONE', #89, .T. ) ;
#103 = ORIENTED_EDGE ( 'NONE', *, *, #101, .T. ) ;
#104 = AXIS2_PLACEMENT_3D ( 'NONE', #220, #77, #79 ) ;
#105 = DIRECTION ( 'NONE',  ( -0.0000000000000000000, 1.000000000000000000, -0.0000000000000000000 ) ) ;
#106 = DIRECTION ( 'NONE',  ( 0.0000000000000000000, 0.0000000000000000000, 1.000000000000000000 ) ) ;
#107 = AXIS2_PLACEMENT_3D ( 'NONE', #99, #95, #266 ) ;
#108 = VECTOR ( 'NONE', #40, 1000.000000000000000 ) ;
#109 = CONICAL_SURFACE ( 'NONE', #232, 1.449999999999999956, 0.7853981633974549403 ) ;
#110 = VERTEX_POINT ( 'NONE', #94 ) ;
#111 = AXIS2_PLACEMENT_3D ( 'NONE', #268, #172, #290 ) ;
#112 = COLOUR_RGB ( '',0.7960784313725489669, 0.8235294117647058432, 0.9372549019607843146 ) ;
#113 = CARTESIAN_POINT ( 'NONE',  ( 3.673940397442058882E-16, 20.00000000000000000, 2.999999999999999112 ) ) ;
#114 = DIRECTION ( 'NONE',  ( 1.000000000000000000, 0.0000000000000000000, 0.0000000000000000000 ) ) ;
#115 = CARTESIAN_POINT ( 'NONE',  ( 0.0000000000000000000, 19.50000000000000355, 1.449999999999999956 ) ) ;
#116 = ORIENTED_EDGE ( 'NONE', *, *, #167, .T. ) ;
#117 = FACE_OUTER_BOUND ( 'NONE', #164, .T. ) ;
#118 = ORIENTED_EDGE ( 'NONE', *, *, #5, .T. ) ;
#119 = AXIS2_PLACEMENT_3D ( 'NONE', #256, #59, #183 ) ;
#120 = CARTESIAN_POINT ( 'NONE',  ( 0.0000000000000000000, 16.00000000000000000, 1.449999999999999956 ) ) ;
#121 = DIRECTION ( 'NONE',  ( 0.0000000000000000000, 1.000000000000000000, 0.0000000000000000000 ) ) ;
#122 = MANIFOLD_SOLID_BREP ( 'Fase2', #234 ) ;
#123 = DIRECTION ( 'NONE',  ( -0.0000000000000000000, 1.000000000000000000, -0.0000000000000000000 ) ) ;
#124 = ORIENTED_EDGE ( 'NONE', *, *, #218, .T. ) ;
#125 = ORIENTED_EDGE ( 'NONE', *, *, #30, .T. ) ;
#126 = PRODUCT_DEFINITION ( 'UNKNOWN', '', #83, #225 ) ;
#127 = PRESENTATION_LAYER_ASSIGNMENT (  '', '', ( #303 ) ) ;
#128 = FACE_OUTER_BOUND ( 'NONE', #300, .T. ) ;
#129 = VERTEX_POINT ( 'NONE', #92 ) ;
#130 = VERTEX_POINT ( 'NONE', #262 ) ;
#131 = EDGE_CURVE ( 'NONE', #129, #45, #168, .T. ) ;
#132 = UNCERTAINTY_MEASURE_WITH_UNIT (LENGTH_MEASURE( 1.000000000000000082E-05 ), #90, 'distance_accuracy_value', 'NONE');
#133 = ORIENTED_EDGE ( 'NONE', *, *, #261, .F. ) ;
#134 = DIRECTION ( 'NONE',  ( 0.0000000000000000000, -0.0000000000000000000, 1.000000000000000000 ) ) ;
#135 = AXIS2_PLACEMENT_3D ( 'NONE', #100, #97, #41 ) ;
#136 = CARTESIAN_POINT ( 'NONE',  ( 1.775737858763661916E-16, 16.00000000000000000, -1.449999999999999956 ) ) ;
#137 = CYLINDRICAL_SURFACE ( 'NONE', #60, 2.999999999999999112 ) ;
#138 =( NAMED_UNIT ( * ) SI_UNIT ( $, .STERADIAN. ) SOLID_ANGLE_UNIT ( ) );
#139 =( LENGTH_UNIT ( ) NAMED_UNIT ( * ) SI_UNIT ( .MILLI., .METRE. ) );
#140 = ORIENTED_EDGE ( 'NONE', *, *, #42, .T. ) ;
#141 = AXIS2_PLACEMENT_3D ( 'NONE', #213, #170, #318 ) ;
#142 = LINE ( 'NONE', #65, #108 ) ;
#143 = ORIENTED_EDGE ( 'NONE', *, *, #270, .F. ) ;
#144 = VERTEX_POINT ( 'NONE', #245 ) ;
#145 = SURFACE_STYLE_USAGE ( .BOTH. , #289 ) ;
#146 = VERTEX_POINT ( 'NONE', #150 ) ;
#147 = CARTESIAN_POINT ( 'NONE',  ( 0.0000000000000000000, 16.00000000000000000, 0.0000000000000000000 ) ) ;
#148 = FACE_OUTER_BOUND ( 'NONE', #58, .T. ) ;
#149 = APPLICATION_PROTOCOL_DEFINITION ( 'draft international standard', 'automotive_design', 1998, #24 ) ;
#150 = CARTESIAN_POINT ( 'NONE',  ( 3.673940397442058882E-16, 20.00000000000000000, 2.999999999999999112 ) ) ;
#151 = DIRECTION ( 'NONE',  ( 0.0000000000000000000, 0.0000000000000000000, 1.000000000000000000 ) ) ;
#152 = CONICAL_SURFACE ( 'NONE', #141, 2.999999999999999112, 0.7853981633974537191 ) ;
#153 = DIRECTION ( 'NONE',  ( -0.0000000000000000000, -1.000000000000000000, -0.0000000000000000000 ) ) ;
#154 = AXIS2_PLACEMENT_3D ( 'NONE', #4, #246, #191 ) ;
#155 = ADVANCED_FACE ( 'NONE', ( #148 ), #196, .F. ) ;
#156 = VECTOR ( 'NONE', #283, 1000.000000000000114 ) ;
#157 = CARTESIAN_POINT ( 'NONE',  ( 3.673940397442058882E-16, 0.1999999999999987899, 2.999999999999999112 ) ) ;
#158 = AXIS2_PLACEMENT_3D ( 'NONE', #80, #204, #252 ) ;
#159 = DIRECTION ( 'NONE',  ( 0.0000000000000000000, 0.0000000000000000000, 1.000000000000000000 ) ) ;
#160 = EDGE_CURVE ( 'NONE', #161, #312, #221, .T. ) ;
#161 = VERTEX_POINT ( 'NONE', #2 ) ;
#162 = ORIENTED_EDGE ( 'NONE', *, *, #68, .T. ) ;
#163 = AXIS2_PLACEMENT_3D ( 'NONE', #12, #299, #70 ) ;
#164 = EDGE_LOOP ( 'NONE', ( #288, #143, #116, #230 ) ) ;
#165 = DIRECTION ( 'NONE',  ( 0.0000000000000000000, 0.0000000000000000000, 1.000000000000000000 ) ) ;
#166 = DIRECTION ( 'NONE',  ( 0.0000000000000000000, 1.000000000000000000, 0.0000000000000000000 ) ) ;
#167 = EDGE_CURVE ( 'NONE', #312, #129, #142, .T. ) ;
#168 = CIRCLE ( 'NONE', #111, 1.449999999999999956 ) ;
#169 = ORIENTED_EDGE ( 'NONE', *, *, #185, .F. ) ;
#170 = DIRECTION ( 'NONE',  ( -0.0000000000000000000, 1.000000000000000000, -0.0000000000000000000 ) ) ;
#171 = AXIS2_PLACEMENT_3D ( 'NONE', #49, #78, #151 ) ;
#172 = DIRECTION ( 'NONE',  ( 0.0000000000000000000, 1.000000000000000000, 0.0000000000000000000 ) ) ;
#173 = DIRECTION ( 'NONE',  ( 0.0000000000000000000, 0.0000000000000000000, -1.000000000000000000 ) ) ;
#174 = PRODUCT_DEFINITION_SHAPE ( 'NONE', 'NONE',  #126 ) ;
#175 = VECTOR ( 'NONE', #316, 1000.000000000000000 ) ;
#176 = ADVANCED_FACE ( 'NONE', ( #297 ), #189, .F. ) ;
#177 = EDGE_LOOP ( 'NONE', ( #215, #38 ) ) ;
#178 = EDGE_LOOP ( 'NONE', ( #224, #264, #26, #17 ) ) ;
#179 = SURFACE_STYLE_FILL_AREA ( #91 ) ;
#180 = EDGE_LOOP ( 'NONE', ( #16, #54, #190, #253 ) ) ;
#181 = AXIS2_PLACEMENT_3D ( 'NONE', #69, #293, #173 ) ;
#182 = CARTESIAN_POINT ( 'NONE',  ( 3.673940397442058882E-16, 0.1999999999999987899, -2.999999999999999112 ) ) ;
#183 = DIRECTION ( 'NONE',  ( 0.0000000000000000000, 0.0000000000000000000, 1.000000000000000000 ) ) ;
#184 = VECTOR ( 'NONE', #33, 1000.000000000000000 ) ;
#185 = EDGE_CURVE ( 'NONE', #146, #144, #37, .T. ) ;
#186 = SURFACE_SIDE_STYLE ('',( #179 ) ) ;
#187 = PRODUCT_RELATED_PRODUCT_CATEGORY ( 'part', '', ( #291 ) ) ;
#188 = UNCERTAINTY_MEASURE_WITH_UNIT (LENGTH_MEASURE( 1.000000000000000082E-05 ), #139, 'distance_accuracy_value', 'NONE');
#189 = CYLINDRICAL_SURFACE ( 'NONE', #275, 1.449999999999999956 ) ;
#190 = ORIENTED_EDGE ( 'NONE', *, *, #261, .T. ) ;
#191 = DIRECTION ( 'NONE',  ( 0.0000000000000000000, -0.0000000000000000000, 1.000000000000000000 ) ) ;
#192 = AXIS2_PLACEMENT_3D ( 'NONE', #202, #153, #74 ) ;
#193 =( NAMED_UNIT ( * ) PLANE_ANGLE_UNIT ( ) SI_UNIT ( $, .RADIAN. ) );
#194 = ADVANCED_FACE ( 'NONE', ( #203 ), #310, .T. ) ;
#195 = CIRCLE ( 'NONE', #32, 1.449999999999999956 ) ;
#196 = PLANE ( 'NONE',  #154 ) ;
#197 = EDGE_LOOP ( 'NONE', ( #240, #93, #13, #84 ) ) ;
#198 = DIRECTION ( 'NONE',  ( -0.0000000000000000000, -1.000000000000000000, -0.0000000000000000000 ) ) ;
#199 = EDGE_CURVE ( 'NONE', #211, #206, #233, .T. ) ;
#200 = MECHANICAL_DESIGN_GEOMETRIC_PRESENTATION_REPRESENTATION (  '', ( #292 ), #219 ) ;
#201 = ADVANCED_FACE ( 'NONE', ( #102 ), #137, .T. ) ;
#202 = CARTESIAN_POINT ( 'NONE',  ( 0.0000000000000000000, 20.00000000000000000, 0.0000000000000000000 ) ) ;
#203 = FACE_OUTER_BOUND ( 'NONE', #267, .T. ) ;
#204 = DIRECTION ( 'NONE',  ( 0.0000000000000000000, 1.000000000000000000, 0.0000000000000000000 ) ) ;
#205 = LINE ( 'NONE', #182, #258 ) ;
#206 = VERTEX_POINT ( 'NONE', #274 ) ;
#207 = LINE ( 'NONE', #113, #175 ) ;
#208 = ORIENTED_EDGE ( 'NONE', *, *, #284, .F. ) ;
#209 = FACE_OUTER_BOUND ( 'NONE', #197, .T. ) ;
#210 = ADVANCED_BREP_SHAPE_REPRESENTATION ( '23503~3', ( #122, #22 ), #96 ) ;
#211 = VERTEX_POINT ( 'NONE', #10 ) ;
#212 =( LENGTH_UNIT ( ) NAMED_UNIT ( * ) SI_UNIT ( .MILLI., .METRE. ) );
#213 = CARTESIAN_POINT ( 'NONE',  ( 0.0000000000000000000, 0.1999999999999987899, 0.0000000000000000000 ) ) ;
#214 = FACE_OUTER_BOUND ( 'NONE', #178, .T. ) ;
#215 = ORIENTED_EDGE ( 'NONE', *, *, #270, .T. ) ;
#216 =( NAMED_UNIT ( * ) SI_UNIT ( $, .STERADIAN. ) SOLID_ANGLE_UNIT ( ) );
#217 = APPLICATION_PROTOCOL_DEFINITION ( 'draft international standard', 'automotive_design', 1998, #282 ) ;
#218 = EDGE_CURVE ( 'NONE', #88, #250, #53, .T. ) ;
#219 =( GEOMETRIC_REPRESENTATION_CONTEXT ( 3 ) GLOBAL_UNCERTAINTY_ASSIGNED_CONTEXT ( ( #132 ) ) GLOBAL_UNIT_ASSIGNED_CONTEXT ( ( #90, #193, #36 ) ) REPRESENTATION_CONTEXT ( 'NONE', 'WORKASPACE' ) );
#220 = CARTESIAN_POINT ( 'NONE',  ( 0.0000000000000000000, 0.0000000000000000000, 0.0000000000000000000 ) ) ;
#221 = CIRCLE ( 'NONE', #278, 1.449999999999999956 ) ;
#222 = ORIENTED_EDGE ( 'NONE', *, *, #218, .F. ) ;
#223 = ADVANCED_FACE ( 'NONE', ( #117 ), #56, .F. ) ;
#224 = ORIENTED_EDGE ( 'NONE', *, *, #308, .F. ) ;
#225 = PRODUCT_DEFINITION_CONTEXT ( 'detailed design', #282, 'design' ) ;
#226 = CARTESIAN_POINT ( 'NONE',  ( 0.0000000000000000000, 16.00000000000000000, 0.0000000000000000000 ) ) ;
#227 = CARTESIAN_POINT ( 'NONE',  ( 0.0000000000000000000, 0.1999999999999987899, 0.0000000000000000000 ) ) ;
#228 = DIRECTION ( 'NONE',  ( 0.0000000000000000000, 1.000000000000000000, 0.0000000000000000000 ) ) ;
#229 = AXIS2_PLACEMENT_3D ( 'NONE', #280, #166, #134 ) ;
#230 = ORIENTED_EDGE ( 'NONE', *, *, #131, .T. ) ;
#231 = ORIENTED_EDGE ( 'NONE', *, *, #284, .T. ) ;
#232 = AXIS2_PLACEMENT_3D ( 'NONE', #50, #46, #159 ) ;
#233 = CIRCLE ( 'NONE', #192, 1.950000000000003508 ) ;
#234 = CLOSED_SHELL ( 'NONE', ( #67, #7, #176, #201, #294, #247, #155, #223, #75, #194, #47 ) ) ;
#235 = DIRECTION ( 'NONE',  ( -0.0000000000000000000, 1.000000000000000000, -0.0000000000000000000 ) ) ;
#236 = LINE ( 'NONE', #115, #156 ) ;
#237 = FILL_AREA_STYLE_COLOUR ( '', #248 ) ;
#238 = EDGE_CURVE ( 'NONE', #161, #45, #243, .T. ) ;
#239 = VECTOR ( 'NONE', #317, 1000.000000000000114 ) ;
#240 = ORIENTED_EDGE ( 'NONE', *, *, #42, .F. ) ;
#241 = CARTESIAN_POINT ( 'NONE',  ( 0.0000000000000000000, 0.1999999999999987899, -2.999999999999999112 ) ) ;
#242 = AXIS2_PLACEMENT_3D ( 'NONE', #307, #52, #106 ) ;
#243 = LINE ( 'NONE', #136, #184 ) ;
#244 = ORIENTED_EDGE ( 'NONE', *, *, #20, .T. ) ;
#245 = CARTESIAN_POINT ( 'NONE',  ( 0.0000000000000000000, 20.00000000000000000, -2.999999999999999112 ) ) ;
#246 = DIRECTION ( 'NONE',  ( 0.0000000000000000000, 1.000000000000000000, 0.0000000000000000000 ) ) ;
#247 = ADVANCED_FACE ( 'NONE', ( #43, #128 ), #304, .T. ) ;
#248 = COLOUR_RGB ( '',0.7960784313725489669, 0.8235294117647058432, 0.9372549019607843146 ) ;
#249 = EDGE_LOOP ( 'NONE', ( #63, #259 ) ) ;
#250 = VERTEX_POINT ( 'NONE', #157 ) ;
#251 = DIRECTION ( 'NONE',  ( 0.0000000000000000000, 0.0000000000000000000, 1.000000000000000000 ) ) ;
#252 = DIRECTION ( 'NONE',  ( 0.0000000000000000000, 0.0000000000000000000, 1.000000000000000000 ) ) ;
#253 = ORIENTED_EDGE ( 'NONE', *, *, #167, .F. ) ;
#254 = ORIENTED_EDGE ( 'NONE', *, *, #185, .T. ) ;
#255 = ORIENTED_EDGE ( 'NONE', *, *, #276, .F. ) ;
#256 = CARTESIAN_POINT ( 'NONE',  ( 0.0000000000000000000, 0.1999999999999987899, 0.0000000000000000000 ) ) ;
#257 = DIRECTION ( 'NONE',  ( 0.0000000000000000000, 0.0000000000000000000, 1.000000000000000000 ) ) ;
#258 = VECTOR ( 'NONE', #34, 1000.000000000000114 ) ;
#259 = ORIENTED_EDGE ( 'NONE', *, *, #199, .T. ) ;
#260 = SURFACE_STYLE_USAGE ( .BOTH. , #186 ) ;
#261 = EDGE_CURVE ( 'NONE', #45, #129, #15, .T. ) ;
#262 = CARTESIAN_POINT ( 'NONE',  ( 3.551475717527322846E-16, 0.0000000000000000000, -2.799999999999998046 ) ) ;
#263 = ORIENTED_EDGE ( 'NONE', *, *, #20, .F. ) ;
#264 = ORIENTED_EDGE ( 'NONE', *, *, #131, .F. ) ;
#265 = MECHANICAL_DESIGN_GEOMETRIC_PRESENTATION_REPRESENTATION (  '', ( #303 ), #6 ) ;
#266 = DIRECTION ( 'NONE',  ( 0.0000000000000000000, 0.0000000000000000000, 1.000000000000000000 ) ) ;
#267 = EDGE_LOOP ( 'NONE', ( #255, #23, #103, #222 ) ) ;
#268 = CARTESIAN_POINT ( 'NONE',  ( 0.0000000000000000000, 19.50000000000000355, 0.0000000000000000000 ) ) ;
#269 = PRODUCT_CONTEXT ( 'NONE', #24, 'mechanical' ) ;
#270 = EDGE_CURVE ( 'NONE', #312, #161, #195, .T. ) ;
#271 = DIRECTION ( 'NONE',  ( 0.0000000000000000000, 0.0000000000000000000, 1.000000000000000000 ) ) ;
#272 = LINE ( 'NONE', #66, #286 ) ;
#273 = DIRECTION ( 'NONE',  ( 0.0000000000000000000, 0.0000000000000000000, 1.000000000000000000 ) ) ;
#274 = CARTESIAN_POINT ( 'NONE',  ( 0.0000000000000000000, 20.00000000000000000, 1.950000000000003508 ) ) ;
#275 = AXIS2_PLACEMENT_3D ( 'NONE', #147, #8, #271 ) ;
#276 = EDGE_CURVE ( 'NONE', #130, #88, #205, .T. ) ;
#277 = ORIENTED_EDGE ( 'NONE', *, *, #30, .F. ) ;
#278 = AXIS2_PLACEMENT_3D ( 'NONE', #226, #228, #251 ) ;
#279 = AXIS2_PLACEMENT_3D ( 'NONE', #309, #235, #165 ) ;
#280 = CARTESIAN_POINT ( 'NONE',  ( 0.0000000000000000000, 20.00000000000000000, 0.0000000000000000000 ) ) ;
#281 = FILL_AREA_STYLE ('',( #287 ) ) ;
#282 = APPLICATION_CONTEXT ( 'automotive_design' ) ;
#283 = DIRECTION ( 'NONE',  ( 0.0000000000000000000, 0.7071067811865426878, 0.7071067811865522357 ) ) ;
#284 = EDGE_CURVE ( 'NONE', #146, #250, #207, .T. ) ;
#285 = PRESENTATION_STYLE_ASSIGNMENT (( #260 ) ) ;
#286 = VECTOR ( 'NONE', #21, 1000.000000000000000 ) ;
#287 = FILL_AREA_STYLE_COLOUR ( '', #112 ) ;
#288 = ORIENTED_EDGE ( 'NONE', *, *, #238, .F. ) ;
#289 = SURFACE_SIDE_STYLE ('',( #39 ) ) ;
#290 = DIRECTION ( 'NONE',  ( 0.0000000000000000000, 0.0000000000000000000, 1.000000000000000000 ) ) ;
#291 = PRODUCT ( '23503~3', '23503~3', '', ( #269 ) ) ;
#292 = STYLED_ITEM ( 'NONE', ( #285 ), #210 ) ;
#293 = DIRECTION ( 'NONE',  ( -0.0000000000000000000, -1.000000000000000000, -0.0000000000000000000 ) ) ;
#294 = ADVANCED_FACE ( 'NONE', ( #71 ), #315, .T. ) ;
#295 =( NAMED_UNIT ( * ) PLANE_ANGLE_UNIT ( ) SI_UNIT ( $, .RADIAN. ) );
#296 = DIRECTION ( 'NONE',  ( 8.659560562354992023E-17, 0.7071067811865426878, -0.7071067811865522357 ) ) ;
#297 = FACE_OUTER_BOUND ( 'NONE', #180, .T. ) ;
#298 = EDGE_CURVE ( 'NONE', #206, #211, #305, .T. ) ;
#299 = DIRECTION ( 'NONE',  ( 0.0000000000000000000, 1.000000000000000000, 0.0000000000000000000 ) ) ;
#300 = EDGE_LOOP ( 'NONE', ( #125, #254 ) ) ;
#301 = DIRECTION ( 'NONE',  ( 0.0000000000000000000, 0.0000000000000000000, 1.000000000000000000 ) ) ;
#302 = CIRCLE ( 'NONE', #279, 2.999999999999999112 ) ;
#303 = STYLED_ITEM ( 'NONE', ( #87 ), #122 ) ;
#304 = PLANE ( 'NONE',  #229 ) ;
#305 = CIRCLE ( 'NONE', #135, 1.950000000000003508 ) ;
#306 = LINE ( 'NONE', #55, #239 ) ;
#307 = CARTESIAN_POINT ( 'NONE',  ( 0.0000000000000000000, 19.50000000000000355, 0.0000000000000000000 ) ) ;
#308 = EDGE_CURVE ( 'NONE', #45, #211, #3, .T. ) ;
#309 = CARTESIAN_POINT ( 'NONE',  ( 0.0000000000000000000, 0.1999999999999987899, 0.0000000000000000000 ) ) ;
#310 = CONICAL_SURFACE ( 'NONE', #313, 2.999999999999999112, 0.7853981633974537191 ) ;
#311 = EDGE_LOOP ( 'NONE', ( #208, #277, #244, #124 ) ) ;
#312 = VERTEX_POINT ( 'NONE', #120 ) ;
#313 = AXIS2_PLACEMENT_3D ( 'NONE', #227, #105, #273 ) ;
#314 = DIRECTION ( 'NONE',  ( 0.0000000000000000000, 1.000000000000000000, 0.0000000000000000000 ) ) ;
#315 = CYLINDRICAL_SURFACE ( 'NONE', #181, 2.999999999999999112 ) ;
#316 = DIRECTION ( 'NONE',  ( -0.0000000000000000000, -1.000000000000000000, -0.0000000000000000000 ) ) ;
#317 = DIRECTION ( 'NONE',  ( 0.0000000000000000000, 0.7071067811865436870, 0.7071067811865513475 ) ) ;
#318 = DIRECTION ( 'NONE',  ( 0.0000000000000000000, 0.0000000000000000000, 1.000000000000000000 ) ) ;
#319 = FACE_OUTER_BOUND ( 'NONE', #44, .T. ) ;
#320 = DIRECTION ( 'NONE',  ( 0.0000000000000000000, 0.0000000000000000000, 1.000000000000000000 ) ) ;
ENDSEC;
END-ISO-10303-21;
