ISO-10303-21;
HEADER;
FILE_DESCRIPTION (( 'STEP AP214' ),
    '1' );
FILE_NAME ('23057~3.STEP',
    '2018-01-24T10:34:20',
    ( '' ),
    ( '' ),
    'SwSTEP 2.0',
    'SolidWorks 2016',
    '' );
FILE_SCHEMA (( 'AUTOMOTIVE_DESIGN' ));
ENDSEC;

DATA;
#1 = DIRECTION ( 'NONE',  ( 0.0000000000000000000, 1.000000000000000000, 0.0000000000000000000 ) ) ;
#2 = VERTEX_POINT ( 'NONE', #346 ) ;
#3 = CARTESIAN_POINT ( 'NONE',  ( 0.0000000000000000000, 16.00000000000000000, 0.0000000000000000000 ) ) ;
#4 =( NAMED_UNIT ( * ) SI_UNIT ( $, .STERADIAN. ) SOLID_ANGLE_UNIT ( ) );
#5 = PRODUCT_RELATED_PRODUCT_CATEGORY ( 'part', '', ( #180 ) ) ;
#6 = FACE_BOUND ( 'NONE', #9, .T. ) ;
#7 = VERTEX_POINT ( 'NONE', #56 ) ;
#8 = PRESENTATION_LAYER_ASSIGNMENT (  '', '', ( #171 ) ) ;
#9 = EDGE_LOOP ( 'NONE', ( #150, #69 ) ) ;
#10 = CARTESIAN_POINT ( 'NONE',  ( 0.0000000000000000000, 14.50000000000000000, 0.0000000000000000000 ) ) ;
#11 = ADVANCED_FACE ( 'NONE', ( #292 ), #238, .F. ) ;
#12 = STYLED_ITEM ( 'NONE', ( #281 ), #50 ) ;
#13 = DIRECTION ( 'NONE',  ( -0.0000000000000000000, 1.000000000000000000, -0.0000000000000000000 ) ) ;
#14 = CARTESIAN_POINT ( 'NONE',  ( 0.0000000000000000000, 20.00000000000000000, 0.0000000000000000000 ) ) ;
#15 = CIRCLE ( 'NONE', #189, 1.450000000000000000 ) ;
#16 = ORIENTED_EDGE ( 'NONE', *, *, #82, .T. ) ;
#17 = AXIS2_PLACEMENT_3D ( 'NONE', #201, #331, #162 ) ;
#18 = ORIENTED_EDGE ( 'NONE', *, *, #134, .F. ) ;
#19 = PRODUCT_CONTEXT ( 'NONE', #299, 'mechanical' ) ;
#20 = CARTESIAN_POINT ( 'NONE',  ( 0.0000000000000000000, 8.000000000000000000, 0.0000000000000000000 ) ) ;
#21 = CARTESIAN_POINT ( 'NONE',  ( 0.0000000000000000000, 16.00000000000000000, 0.0000000000000000000 ) ) ;
#22 = CIRCLE ( 'NONE', #349, 1.250000000000000200 ) ;
#23 = ORIENTED_EDGE ( 'NONE', *, *, #296, .T. ) ;
#24 = DIRECTION ( 'NONE',  ( 0.0000000000000000000, 0.0000000000000000000, 1.000000000000000000 ) ) ;
#25 = AXIS2_PLACEMENT_3D ( 'NONE', #10, #153, #239 ) ;
#26 = DIRECTION ( 'NONE',  ( 0.0000000000000000000, -0.0000000000000000000, 1.000000000000000000 ) ) ;
#27 = VECTOR ( 'NONE', #13, 1000.000000000000000 ) ;
#28 = ORIENTED_EDGE ( 'NONE', *, *, #157, .F. ) ;
#29 = CARTESIAN_POINT ( 'NONE',  ( 0.0000000000000000000, 19.50000000000000400, 0.0000000000000000000 ) ) ;
#30 = CARTESIAN_POINT ( 'NONE',  ( 1.775737858763661900E-016, 19.50000000000000400, -1.450000000000000000 ) ) ;
#31 = DIRECTION ( 'NONE',  ( 0.0000000000000000000, 1.000000000000000000, 0.0000000000000000000 ) ) ;
#32 = AXIS2_PLACEMENT_3D ( 'NONE', #260, #34, #285 ) ;
#33 = CIRCLE ( 'NONE', #138, 1.950000000000003500 ) ;
#34 = DIRECTION ( 'NONE',  ( 0.0000000000000000000, 1.000000000000000000, 0.0000000000000000000 ) ) ;
#35 = FACE_OUTER_BOUND ( 'NONE', #132, .T. ) ;
#36 = ORIENTED_EDGE ( 'NONE', *, *, #157, .T. ) ;
#37 = EDGE_CURVE ( 'NONE', #283, #316, #74, .T. ) ;
#38 = ADVANCED_FACE ( 'NONE', ( #90 ), #58, .T. ) ;
#39 = DIRECTION ( 'NONE',  ( 0.0000000000000000000, 1.000000000000000000, 0.0000000000000000000 ) ) ;
#40 = CIRCLE ( 'NONE', #25, 3.000000000000000400 ) ;
#41 = DIRECTION ( 'NONE',  ( 0.0000000000000000000, 0.0000000000000000000, 1.000000000000000000 ) ) ;
#42 = ORIENTED_EDGE ( 'NONE', *, *, #152, .T. ) ;
#43 = DIRECTION ( 'NONE',  ( 0.0000000000000000000, 0.0000000000000000000, 1.000000000000000000 ) ) ;
#44 = AXIS2_PLACEMENT_3D ( 'NONE', #59, #144, #344 ) ;
#45 = CIRCLE ( 'NONE', #197, 1.250000000000000200 ) ;
#46 = DIRECTION ( 'NONE',  ( 0.0000000000000000000, 0.0000000000000000000, 1.000000000000000000 ) ) ;
#47 = DIRECTION ( 'NONE',  ( 1.000000000000000000, 0.0000000000000000000, 0.0000000000000000000 ) ) ;
#48 = CARTESIAN_POINT ( 'NONE',  ( 0.0000000000000000000, 19.50000000000000400, 0.0000000000000000000 ) ) ;
#49 = EDGE_CURVE ( 'NONE', #249, #218, #337, .T. ) ;
#50 = MANIFOLD_SOLID_BREP ( 'Fase1', #256 ) ;
#51 = COLOUR_RGB ( '',1.000000000000000000, 1.000000000000000000, 1.000000000000000000 ) ;
#52 = ORIENTED_EDGE ( 'NONE', *, *, #320, .F. ) ;
#53 = DIRECTION ( 'NONE',  ( -0.0000000000000000000, 1.000000000000000000, -0.0000000000000000000 ) ) ;
#54 = AXIS2_PLACEMENT_3D ( 'NONE', #182, #39, #190 ) ;
#55 = CYLINDRICAL_SURFACE ( 'NONE', #94, 3.000000000000000400 ) ;
#56 = CARTESIAN_POINT ( 'NONE',  ( 2.388061258337343100E-016, 20.00000000000000000, -1.950000000000003500 ) ) ;
#57 = VECTOR ( 'NONE', #80, 1000.000000000000000 ) ;
#58 = CYLINDRICAL_SURFACE ( 'NONE', #290, 1.250000000000000200 ) ;
#59 = CARTESIAN_POINT ( 'NONE',  ( 0.0000000000000000000, 0.0000000000000000000, 0.0000000000000000000 ) ) ;
#60 = CARTESIAN_POINT ( 'NONE',  ( 0.0000000000000000000, 20.00000000000000000, -3.000000000000000400 ) ) ;
#61 = SHAPE_DEFINITION_REPRESENTATION ( #338, #107 ) ;
#62 = ORIENTED_EDGE ( 'NONE', *, *, #334, .T. ) ;
#63 = ORIENTED_EDGE ( 'NONE', *, *, #245, .F. ) ;
#64 = DIRECTION ( 'NONE',  ( 0.0000000000000000000, 0.0000000000000000000, 1.000000000000000000 ) ) ;
#65 = EDGE_CURVE ( 'NONE', #204, #7, #247, .T. ) ;
#66 = CIRCLE ( 'NONE', #113, 1.450000000000000000 ) ;
#67 = ORIENTED_EDGE ( 'NONE', *, *, #307, .T. ) ;
#68 = EDGE_CURVE ( 'NONE', #249, #206, #22, .T. ) ;
#69 = ORIENTED_EDGE ( 'NONE', *, *, #195, .T. ) ;
#70 = CARTESIAN_POINT ( 'NONE',  ( 0.0000000000000000000, 20.00000000000000000, 1.950000000000003500 ) ) ;
#71 = DIRECTION ( 'NONE',  ( 3.183756821211565700E-017, 0.9656157585206696100, -0.2599734734478725800 ) ) ;
#72 = CARTESIAN_POINT ( 'NONE',  ( 3.673940397442060400E-016, 14.50000000000000000, -3.000000000000000000 ) ) ;
#73 = CIRCLE ( 'NONE', #284, 3.000000000000000400 ) ;
#74 = LINE ( 'NONE', #178, #123 ) ;
#75 = CARTESIAN_POINT ( 'NONE',  ( 0.0000000000000000000, 19.50000000000000400, 1.450000000000000000 ) ) ;
#76 = AXIS2_PLACEMENT_3D ( 'NONE', #199, #223, #366 ) ;
#77 = PLANE ( 'NONE',  #234 ) ;
#78 = ORIENTED_EDGE ( 'NONE', *, *, #134, .T. ) ;
#79 = DIRECTION ( 'NONE',  ( 0.0000000000000000000, 1.000000000000000000, 0.0000000000000000000 ) ) ;
#80 = DIRECTION ( 'NONE',  ( -0.0000000000000000000, -1.000000000000000000, -0.0000000000000000000 ) ) ;
#81 =( LENGTH_UNIT ( ) NAMED_UNIT ( * ) SI_UNIT ( .MILLI., .METRE. ) );
#82 = EDGE_CURVE ( 'NONE', #273, #218, #40, .T. ) ;
#83 = VECTOR ( 'NONE', #339, 1000.000000000000000 ) ;
#84 = ORIENTED_EDGE ( 'NONE', *, *, #202, .F. ) ;
#85 = UNCERTAINTY_MEASURE_WITH_UNIT (LENGTH_MEASURE( 1.000000000000000100E-005 ), #81, 'distance_accuracy_value', 'NONE');
#86 = SURFACE_SIDE_STYLE ('',( #237 ) ) ;
#87 = ADVANCED_FACE ( 'NONE', ( #179 ), #269, .T. ) ;
#88 = EDGE_CURVE ( 'NONE', #161, #218, #262, .T. ) ;
#89 = CIRCLE ( 'NONE', #315, 1.250000000000000200 ) ;
#90 = FACE_OUTER_BOUND ( 'NONE', #212, .T. ) ;
#91 = CARTESIAN_POINT ( 'NONE',  ( 0.0000000000000000000, 8.000000000000000000, 0.0000000000000000000 ) ) ;
#92 = ORIENTED_EDGE ( 'NONE', *, *, #65, .F. ) ;
#93 = DIRECTION ( 'NONE',  ( 0.0000000000000000000, 0.7071067811865426900, 0.7071067811865522400 ) ) ;
#94 = AXIS2_PLACEMENT_3D ( 'NONE', #14, #213, #266 ) ;
#95 = CARTESIAN_POINT ( 'NONE',  ( 0.0000000000000000000, 16.00000000000000000, 1.450000000000000000 ) ) ;
#96 = CARTESIAN_POINT ( 'NONE',  ( 3.673940397442060400E-016, 20.00000000000000000, 3.000000000000000400 ) ) ;
#97 = VECTOR ( 'NONE', #71, 1000.000000000000200 ) ;
#98 =( GEOMETRIC_REPRESENTATION_CONTEXT ( 3 ) GLOBAL_UNCERTAINTY_ASSIGNED_CONTEXT ( ( #252 ) ) GLOBAL_UNIT_ASSIGNED_CONTEXT ( ( #325, #158, #159 ) ) REPRESENTATION_CONTEXT ( 'NONE', 'WORKASPACE' ) );
#99 = CONICAL_SURFACE ( 'NONE', #54, 1.250000000000000200, 0.2629947316809194700 ) ;
#100 = VERTEX_POINT ( 'NONE', #323 ) ;
#101 = APPLICATION_PROTOCOL_DEFINITION ( 'draft international standard', 'automotive_design', 1998, #219 ) ;
#102 = CARTESIAN_POINT ( 'NONE',  ( 0.0000000000000000000, 8.000000000000000000, -1.250000000000000200 ) ) ;
#103 = CONICAL_SURFACE ( 'NONE', #225, 1.450000000000000000, 0.7853981633974549400 ) ;
#104 = EDGE_LOOP ( 'NONE', ( #166, #258, #127, #36 ) ) ;
#105 = DIRECTION ( 'NONE',  ( 0.0000000000000000000, 1.000000000000000000, 0.0000000000000000000 ) ) ;
#106 =( GEOMETRIC_REPRESENTATION_CONTEXT ( 3 ) GLOBAL_UNCERTAINTY_ASSIGNED_CONTEXT ( ( #85 ) ) GLOBAL_UNIT_ASSIGNED_CONTEXT ( ( #81, #173, #4 ) ) REPRESENTATION_CONTEXT ( 'NONE', 'WORKASPACE' ) );
#107 = ADVANCED_BREP_SHAPE_REPRESENTATION ( '23057~3', ( #50, #142 ), #357 ) ;
#108 = CARTESIAN_POINT ( 'NONE',  ( 1.775737858763661900E-016, 16.00000000000000000, -1.450000000000000000 ) ) ;
#109 = CARTESIAN_POINT ( 'NONE',  ( 0.0000000000000000000, 20.00000000000000000, 0.0000000000000000000 ) ) ;
#110 = LINE ( 'NONE', #324, #275 ) ;
#111 = ORIENTED_EDGE ( 'NONE', *, *, #253, .T. ) ;
#112 = DIRECTION ( 'NONE',  ( 0.0000000000000000000, 0.0000000000000000000, 1.000000000000000000 ) ) ;
#113 = AXIS2_PLACEMENT_3D ( 'NONE', #3, #1, #230 ) ;
#114 = CARTESIAN_POINT ( 'NONE',  ( 1.530808498934191800E-016, 8.000000000000000000, 1.250000000000000200 ) ) ;
#115 = AXIS2_PLACEMENT_3D ( 'NONE', #364, #136, #24 ) ;
#116 = FACE_OUTER_BOUND ( 'NONE', #270, .T. ) ;
#117 = EDGE_LOOP ( 'NONE', ( #84, #78, #92, #301 ) ) ;
#118 = CARTESIAN_POINT ( 'NONE',  ( 0.0000000000000000000, 8.000000000000000000, 0.0000000000000000000 ) ) ;
#119 = PRODUCT_DEFINITION ( 'UNKNOWN', '', #355, #235 ) ;
#120 = AXIS2_PLACEMENT_3D ( 'NONE', #128, #350, #321 ) ;
#121 = DIRECTION ( 'NONE',  ( -0.0000000000000000000, 1.000000000000000000, -0.0000000000000000000 ) ) ;
#122 = CONICAL_SURFACE ( 'NONE', #177, 1.450000000000000000, 0.7853981633974549400 ) ;
#123 = VECTOR ( 'NONE', #121, 1000.000000000000000 ) ;
#124 = PLANE ( 'NONE',  #268 ) ;
#125 = ADVANCED_FACE ( 'NONE', ( #6, #145 ), #124, .T. ) ;
#126 = ADVANCED_FACE ( 'NONE', ( #168 ), #55, .T. ) ;
#127 = ORIENTED_EDGE ( 'NONE', *, *, #370, .T. ) ;
#128 = CARTESIAN_POINT ( 'NONE',  ( 0.0000000000000000000, 16.00000000000000000, 0.0000000000000000000 ) ) ;
#129 = DIRECTION ( 'NONE',  ( -0.0000000000000000000, -1.000000000000000000, -0.0000000000000000000 ) ) ;
#130 = EDGE_CURVE ( 'NONE', #294, #204, #297, .T. ) ;
#131 = CIRCLE ( 'NONE', #172, 1.450000000000000000 ) ;
#132 = EDGE_LOOP ( 'NONE', ( #369, #42, #240, #187 ) ) ;
#133 = DIRECTION ( 'NONE',  ( -0.0000000000000000000, -1.000000000000000000, -0.0000000000000000000 ) ) ;
#134 = EDGE_CURVE ( 'NONE', #316, #7, #110, .T. ) ;
#135 = COLOUR_RGB ( '',1.000000000000000000, 1.000000000000000000, 1.000000000000000000 ) ;
#136 = DIRECTION ( 'NONE',  ( 0.0000000000000000000, 1.000000000000000000, 0.0000000000000000000 ) ) ;
#137 = CYLINDRICAL_SURFACE ( 'NONE', #208, 1.450000000000000000 ) ;
#138 = AXIS2_PLACEMENT_3D ( 'NONE', #109, #222, #367 ) ;
#139 = VERTEX_POINT ( 'NONE', #293 ) ;
#140 = ORIENTED_EDGE ( 'NONE', *, *, #345, .T. ) ;
#141 = EDGE_LOOP ( 'NONE', ( #169, #318, #140, #23 ) ) ;
#142 = AXIS2_PLACEMENT_3D ( 'NONE', #242, #46, #47 ) ;
#143 = EDGE_CURVE ( 'NONE', #100, #273, #243, .T. ) ;
#144 = DIRECTION ( 'NONE',  ( 0.0000000000000000000, 1.000000000000000000, 0.0000000000000000000 ) ) ;
#145 = FACE_OUTER_BOUND ( 'NONE', #214, .T. ) ;
#146 = EDGE_LOOP ( 'NONE', ( #250, #62 ) ) ;
#147 = ADVANCED_FACE ( 'NONE', ( #165 ), #99, .T. ) ;
#148 = AXIS2_PLACEMENT_3D ( 'NONE', #229, #53, #340 ) ;
#149 = CARTESIAN_POINT ( 'NONE',  ( 0.0000000000000000000, 19.50000000000000400, 1.450000000000000000 ) ) ;
#150 = ORIENTED_EDGE ( 'NONE', *, *, #65, .T. ) ;
#151 = DIRECTION ( 'NONE',  ( -0.0000000000000000000, -1.000000000000000000, -0.0000000000000000000 ) ) ;
#152 = EDGE_CURVE ( 'NONE', #206, #249, #45, .T. ) ;
#153 = DIRECTION ( 'NONE',  ( 0.0000000000000000000, 1.000000000000000000, 0.0000000000000000000 ) ) ;
#154 = LINE ( 'NONE', #233, #57 ) ;
#155 = CARTESIAN_POINT ( 'NONE',  ( 3.673940397442060400E-016, 20.00000000000000000, 3.000000000000000400 ) ) ;
#156 = ORIENTED_EDGE ( 'NONE', *, *, #264, .F. ) ;
#157 = EDGE_CURVE ( 'NONE', #294, #316, #15, .T. ) ;
#158 =( NAMED_UNIT ( * ) PLANE_ANGLE_UNIT ( ) SI_UNIT ( $, .RADIAN. ) );
#159 =( NAMED_UNIT ( * ) SI_UNIT ( $, .STERADIAN. ) SOLID_ANGLE_UNIT ( ) );
#160 = FILL_AREA_STYLE_COLOUR ( '', #51 ) ;
#161 = VERTEX_POINT ( 'NONE', #155 ) ;
#162 = DIRECTION ( 'NONE',  ( 0.0000000000000000000, 0.0000000000000000000, 1.000000000000000000 ) ) ;
#163 = DIRECTION ( 'NONE',  ( 0.0000000000000000000, 1.000000000000000000, 0.0000000000000000000 ) ) ;
#164 = AXIS2_PLACEMENT_3D ( 'NONE', #185, #295, #41 ) ;
#165 = FACE_OUTER_BOUND ( 'NONE', #244, .T. ) ;
#166 = ORIENTED_EDGE ( 'NONE', *, *, #37, .F. ) ;
#167 = CARTESIAN_POINT ( 'NONE',  ( 0.0000000000000000000, 19.50000000000000400, 0.0000000000000000000 ) ) ;
#168 = FACE_OUTER_BOUND ( 'NONE', #363, .T. ) ;
#169 = ORIENTED_EDGE ( 'NONE', *, *, #307, .F. ) ;
#170 = CARTESIAN_POINT ( 'NONE',  ( 0.0000000000000000000, 16.00000000000000000, 1.450000000000000000 ) ) ;
#171 = STYLED_ITEM ( 'NONE', ( #286 ), #107 ) ;
#172 = AXIS2_PLACEMENT_3D ( 'NONE', #48, #217, #254 ) ;
#173 =( NAMED_UNIT ( * ) PLANE_ANGLE_UNIT ( ) SI_UNIT ( $, .RADIAN. ) );
#174 = ADVANCED_FACE ( 'NONE', ( #116 ), #137, .F. ) ;
#175 = LINE ( 'NONE', #114, #83 ) ;
#176 = ORIENTED_EDGE ( 'NONE', *, *, #130, .T. ) ;
#177 = AXIS2_PLACEMENT_3D ( 'NONE', #29, #353, #216 ) ;
#178 = CARTESIAN_POINT ( 'NONE',  ( 1.775737858763661900E-016, 16.00000000000000000, -1.450000000000000000 ) ) ;
#179 = FACE_OUTER_BOUND ( 'NONE', #221, .T. ) ;
#180 = PRODUCT ( '23057~3', '23057~3', '', ( #19 ) ) ;
#181 = ORIENTED_EDGE ( 'NONE', *, *, #49, .F. ) ;
#182 = CARTESIAN_POINT ( 'NONE',  ( 0.0000000000000000000, 8.000000000000000000, 0.0000000000000000000 ) ) ;
#183 = ORIENTED_EDGE ( 'NONE', *, *, #370, .F. ) ;
#184 = ADVANCED_FACE ( 'NONE', ( #35 ), #192, .T. ) ;
#185 = CARTESIAN_POINT ( 'NONE',  ( 0.0000000000000000000, 20.00000000000000000, 0.0000000000000000000 ) ) ;
#186 = VECTOR ( 'NONE', #93, 1000.000000000000100 ) ;
#187 = ORIENTED_EDGE ( 'NONE', *, *, #82, .F. ) ;
#188 = DIRECTION ( 'NONE',  ( 0.0000000000000000000, -0.0000000000000000000, 1.000000000000000000 ) ) ;
#189 = AXIS2_PLACEMENT_3D ( 'NONE', #278, #105, #280 ) ;
#190 = DIRECTION ( 'NONE',  ( 0.0000000000000000000, 0.0000000000000000000, 1.000000000000000000 ) ) ;
#191 =( NAMED_UNIT ( * ) SI_UNIT ( $, .STERADIAN. ) SOLID_ANGLE_UNIT ( ) );
#192 = CONICAL_SURFACE ( 'NONE', #76, 1.250000000000000200, 0.2629947316809194700 ) ;
#193 = EDGE_LOOP ( 'NONE', ( #18, #28, #176, #227 ) ) ;
#194 = ORIENTED_EDGE ( 'NONE', *, *, #68, .F. ) ;
#195 = EDGE_CURVE ( 'NONE', #7, #204, #33, .T. ) ;
#196 = SURFACE_STYLE_USAGE ( .BOTH. , #248 ) ;
#197 = AXIS2_PLACEMENT_3D ( 'NONE', #20, #306, #274 ) ;
#198 = ORIENTED_EDGE ( 'NONE', *, *, #264, .T. ) ;
#199 = CARTESIAN_POINT ( 'NONE',  ( 0.0000000000000000000, 8.000000000000000000, 0.0000000000000000000 ) ) ;
#200 = DIRECTION ( 'NONE',  ( 0.0000000000000000000, 0.0000000000000000000, -1.000000000000000000 ) ) ;
#201 = CARTESIAN_POINT ( 'NONE',  ( 0.0000000000000000000, 14.50000000000000000, 0.0000000000000000000 ) ) ;
#202 = EDGE_CURVE ( 'NONE', #316, #294, #131, .T. ) ;
#203 = SURFACE_STYLE_FILL_AREA ( #361 ) ;
#204 = VERTEX_POINT ( 'NONE', #70 ) ;
#205 = CARTESIAN_POINT ( 'NONE',  ( 0.0000000000000000000, 0.0000000000000000000, 0.0000000000000000000 ) ) ;
#206 = VERTEX_POINT ( 'NONE', #102 ) ;
#207 = DIRECTION ( 'NONE',  ( 0.0000000000000000000, 0.9656157585206696100, 0.2599734734478725800 ) ) ;
#208 = AXIS2_PLACEMENT_3D ( 'NONE', #21, #277, #43 ) ;
#209 = CIRCLE ( 'NONE', #120, 1.450000000000000000 ) ;
#210 = ORIENTED_EDGE ( 'NONE', *, *, #37, .T. ) ;
#211 = ADVANCED_FACE ( 'NONE', ( #327 ), #332, .T. ) ;
#212 = EDGE_LOOP ( 'NONE', ( #194, #67, #198, #362 ) ) ;
#213 = DIRECTION ( 'NONE',  ( -0.0000000000000000000, -1.000000000000000000, -0.0000000000000000000 ) ) ;
#214 = EDGE_LOOP ( 'NONE', ( #231, #298 ) ) ;
#215 = PRESENTATION_LAYER_ASSIGNMENT (  '', '', ( #12 ) ) ;
#216 = DIRECTION ( 'NONE',  ( 0.0000000000000000000, 0.0000000000000000000, 1.000000000000000000 ) ) ;
#217 = DIRECTION ( 'NONE',  ( 0.0000000000000000000, 1.000000000000000000, 0.0000000000000000000 ) ) ;
#218 = VERTEX_POINT ( 'NONE', #303 ) ;
#219 = APPLICATION_CONTEXT ( 'automotive_design' ) ;
#220 = ORIENTED_EDGE ( 'NONE', *, *, #88, .F. ) ;
#221 = EDGE_LOOP ( 'NONE', ( #52, #305, #232, #263 ) ) ;
#222 = DIRECTION ( 'NONE',  ( -0.0000000000000000000, -1.000000000000000000, -0.0000000000000000000 ) ) ;
#223 = DIRECTION ( 'NONE',  ( 0.0000000000000000000, 1.000000000000000000, 0.0000000000000000000 ) ) ;
#224 = CARTESIAN_POINT ( 'NONE',  ( 0.0000000000000000000, 8.000000000000000000, 0.0000000000000000000 ) ) ;
#225 = AXIS2_PLACEMENT_3D ( 'NONE', #167, #163, #228 ) ;
#226 = LINE ( 'NONE', #276, #97 ) ;
#227 = ORIENTED_EDGE ( 'NONE', *, *, #195, .F. ) ;
#228 = DIRECTION ( 'NONE',  ( 0.0000000000000000000, 0.0000000000000000000, 1.000000000000000000 ) ) ;
#229 = CARTESIAN_POINT ( 'NONE',  ( 0.0000000000000000000, 16.00000000000000000, 0.0000000000000000000 ) ) ;
#230 = DIRECTION ( 'NONE',  ( 0.0000000000000000000, 0.0000000000000000000, 1.000000000000000000 ) ) ;
#231 = ORIENTED_EDGE ( 'NONE', *, *, #343, .T. ) ;
#232 = ORIENTED_EDGE ( 'NONE', *, *, #245, .T. ) ;
#233 = CARTESIAN_POINT ( 'NONE',  ( 0.0000000000000000000, 8.000000000000000000, -1.250000000000000200 ) ) ;
#234 = AXIS2_PLACEMENT_3D ( 'NONE', #282, #335, #26 ) ;
#235 = PRODUCT_DEFINITION_CONTEXT ( 'detailed design', #219, 'design' ) ;
#236 = FACE_OUTER_BOUND ( 'NONE', #193, .T. ) ;
#237 = SURFACE_STYLE_FILL_AREA ( #261 ) ;
#238 = PLANE ( 'NONE',  #44 ) ;
#239 = DIRECTION ( 'NONE',  ( 0.0000000000000000000, 0.0000000000000000000, 1.000000000000000000 ) ) ;
#240 = ORIENTED_EDGE ( 'NONE', *, *, #49, .T. ) ;
#241 = DIRECTION ( 'NONE',  ( 0.0000000000000000000, 0.0000000000000000000, -1.000000000000000000 ) ) ;
#242 = CARTESIAN_POINT ( 'NONE',  ( 0.0000000000000000000, 0.0000000000000000000, 0.0000000000000000000 ) ) ;
#243 = LINE ( 'NONE', #60, #368 ) ;
#244 = EDGE_LOOP ( 'NONE', ( #342, #111, #63, #181 ) ) ;
#245 = EDGE_CURVE ( 'NONE', #218, #273, #255, .T. ) ;
#246 =( LENGTH_UNIT ( ) NAMED_UNIT ( * ) SI_UNIT ( .MILLI., .METRE. ) );
#247 = CIRCLE ( 'NONE', #164, 1.950000000000003500 ) ;
#248 = SURFACE_SIDE_STYLE ('',( #203 ) ) ;
#249 = VERTEX_POINT ( 'NONE', #330 ) ;
#250 = ORIENTED_EDGE ( 'NONE', *, *, #365, .T. ) ;
#251 =( NAMED_UNIT ( * ) PLANE_ANGLE_UNIT ( ) SI_UNIT ( $, .RADIAN. ) );
#252 = UNCERTAINTY_MEASURE_WITH_UNIT (LENGTH_MEASURE( 1.000000000000000100E-005 ), #325, 'distance_accuracy_value', 'NONE');
#253 = EDGE_CURVE ( 'NONE', #206, #273, #226, .T. ) ;
#254 = DIRECTION ( 'NONE',  ( 0.0000000000000000000, 0.0000000000000000000, 1.000000000000000000 ) ) ;
#255 = CIRCLE ( 'NONE', #17, 3.000000000000000400 ) ;
#256 = CLOSED_SHELL ( 'NONE', ( #352, #174, #87, #147, #38, #211, #11, #184, #126, #125, #319, #317, #288 ) ) ;
#257 = MECHANICAL_DESIGN_GEOMETRIC_PRESENTATION_REPRESENTATION (  '', ( #171 ), #98 ) ;
#258 = ORIENTED_EDGE ( 'NONE', *, *, #365, .F. ) ;
#259 = CARTESIAN_POINT ( 'NONE',  ( 0.0000000000000000000, 20.00000000000000000, 0.0000000000000000000 ) ) ;
#260 = CARTESIAN_POINT ( 'NONE',  ( 0.0000000000000000000, 20.00000000000000000, 0.0000000000000000000 ) ) ;
#261 = FILL_AREA_STYLE ('',( #265 ) ) ;
#262 = LINE ( 'NONE', #96, #312 ) ;
#263 = ORIENTED_EDGE ( 'NONE', *, *, #143, .F. ) ;
#264 = EDGE_CURVE ( 'NONE', #2, #139, #336, .T. ) ;
#265 = FILL_AREA_STYLE_COLOUR ( '', #135 ) ;
#266 = DIRECTION ( 'NONE',  ( 0.0000000000000000000, 0.0000000000000000000, -1.000000000000000000 ) ) ;
#267 = DIRECTION ( 'NONE',  ( 0.0000000000000000000, 1.000000000000000000, 0.0000000000000000000 ) ) ;
#268 = AXIS2_PLACEMENT_3D ( 'NONE', #271, #356, #188 ) ;
#269 = CYLINDRICAL_SURFACE ( 'NONE', #279, 3.000000000000000400 ) ;
#270 = EDGE_LOOP ( 'NONE', ( #313, #210, #329, #183 ) ) ;
#271 = CARTESIAN_POINT ( 'NONE',  ( 0.0000000000000000000, 20.00000000000000000, 0.0000000000000000000 ) ) ;
#272 = LINE ( 'NONE', #95, #27 ) ;
#273 = VERTEX_POINT ( 'NONE', #72 ) ;
#274 = DIRECTION ( 'NONE',  ( 0.0000000000000000000, 0.0000000000000000000, 1.000000000000000000 ) ) ;
#275 = VECTOR ( 'NONE', #351, 1000.000000000000100 ) ;
#276 = CARTESIAN_POINT ( 'NONE',  ( 1.530808498934191800E-016, 8.000000000000000000, -1.250000000000000200 ) ) ;
#277 = DIRECTION ( 'NONE',  ( -0.0000000000000000000, 1.000000000000000000, -0.0000000000000000000 ) ) ;
#278 = CARTESIAN_POINT ( 'NONE',  ( 0.0000000000000000000, 19.50000000000000400, 0.0000000000000000000 ) ) ;
#279 = AXIS2_PLACEMENT_3D ( 'NONE', #354, #291, #241 ) ;
#280 = DIRECTION ( 'NONE',  ( 0.0000000000000000000, 0.0000000000000000000, 1.000000000000000000 ) ) ;
#281 = PRESENTATION_STYLE_ASSIGNMENT (( #311 ) ) ;
#282 = CARTESIAN_POINT ( 'NONE',  ( 0.0000000000000000000, 16.00000000000000000, 0.0000000000000000000 ) ) ;
#283 = VERTEX_POINT ( 'NONE', #108 ) ;
#284 = AXIS2_PLACEMENT_3D ( 'NONE', #259, #31, #310 ) ;
#285 = DIRECTION ( 'NONE',  ( 0.0000000000000000000, 0.0000000000000000000, 1.000000000000000000 ) ) ;
#286 = PRESENTATION_STYLE_ASSIGNMENT (( #196 ) ) ;
#287 = DIRECTION ( 'NONE',  ( -0.0000000000000000000, -1.000000000000000000, -0.0000000000000000000 ) ) ;
#288 = ADVANCED_FACE ( 'NONE', ( #236 ), #103, .F. ) ;
#289 = ORIENTED_EDGE ( 'NONE', *, *, #143, .T. ) ;
#290 = AXIS2_PLACEMENT_3D ( 'NONE', #118, #287, #348 ) ;
#291 = DIRECTION ( 'NONE',  ( -0.0000000000000000000, -1.000000000000000000, -0.0000000000000000000 ) ) ;
#292 = FACE_OUTER_BOUND ( 'NONE', #308, .T. ) ;
#293 = CARTESIAN_POINT ( 'NONE',  ( 0.0000000000000000000, 0.0000000000000000000, -1.250000000000000200 ) ) ;
#294 = VERTEX_POINT ( 'NONE', #75 ) ;
#295 = DIRECTION ( 'NONE',  ( -0.0000000000000000000, -1.000000000000000000, -0.0000000000000000000 ) ) ;
#296 = EDGE_CURVE ( 'NONE', #139, #2, #89, .T. ) ;
#297 = LINE ( 'NONE', #149, #186 ) ;
#298 = ORIENTED_EDGE ( 'NONE', *, *, #320, .T. ) ;
#299 = APPLICATION_CONTEXT ( 'automotive_design' ) ;
#300 = ORIENTED_EDGE ( 'NONE', *, *, #343, .F. ) ;
#301 = ORIENTED_EDGE ( 'NONE', *, *, #130, .F. ) ;
#302 = AXIS2_PLACEMENT_3D ( 'NONE', #224, #133, #200 ) ;
#303 = CARTESIAN_POINT ( 'NONE',  ( 0.0000000000000000000, 14.50000000000000000, 3.000000000000000000 ) ) ;
#304 = FACE_OUTER_BOUND ( 'NONE', #146, .T. ) ;
#305 = ORIENTED_EDGE ( 'NONE', *, *, #88, .T. ) ;
#306 = DIRECTION ( 'NONE',  ( 0.0000000000000000000, 1.000000000000000000, 0.0000000000000000000 ) ) ;
#307 = EDGE_CURVE ( 'NONE', #249, #2, #175, .T. ) ;
#308 = EDGE_LOOP ( 'NONE', ( #333, #156 ) ) ;
#309 = UNCERTAINTY_MEASURE_WITH_UNIT (LENGTH_MEASURE( 1.000000000000000100E-005 ), #246, 'distance_accuracy_value', 'NONE');
#310 = DIRECTION ( 'NONE',  ( 0.0000000000000000000, 0.0000000000000000000, 1.000000000000000000 ) ) ;
#311 = SURFACE_STYLE_USAGE ( .BOTH. , #86 ) ;
#312 = VECTOR ( 'NONE', #129, 1000.000000000000000 ) ;
#313 = ORIENTED_EDGE ( 'NONE', *, *, #334, .F. ) ;
#314 = CARTESIAN_POINT ( 'NONE',  ( 0.0000000000000000000, 8.000000000000000000, 1.250000000000000200 ) ) ;
#315 = AXIS2_PLACEMENT_3D ( 'NONE', #205, #79, #112 ) ;
#316 = VERTEX_POINT ( 'NONE', #30 ) ;
#317 = ADVANCED_FACE ( 'NONE', ( #304 ), #77, .T. ) ;
#318 = ORIENTED_EDGE ( 'NONE', *, *, #152, .F. ) ;
#319 = ADVANCED_FACE ( 'NONE', ( #322 ), #347, .F. ) ;
#320 = EDGE_CURVE ( 'NONE', #161, #100, #73, .T. ) ;
#321 = DIRECTION ( 'NONE',  ( 0.0000000000000000000, 0.0000000000000000000, 1.000000000000000000 ) ) ;
#322 = FACE_OUTER_BOUND ( 'NONE', #104, .T. ) ;
#323 = CARTESIAN_POINT ( 'NONE',  ( 0.0000000000000000000, 20.00000000000000000, -3.000000000000000400 ) ) ;
#324 = CARTESIAN_POINT ( 'NONE',  ( 1.775737858763661900E-016, 19.50000000000000400, -1.450000000000000000 ) ) ;
#325 =( LENGTH_UNIT ( ) NAMED_UNIT ( * ) SI_UNIT ( .MILLI., .METRE. ) );
#326 = MECHANICAL_DESIGN_GEOMETRIC_PRESENTATION_REPRESENTATION (  '', ( #12 ), #106 ) ;
#327 = FACE_OUTER_BOUND ( 'NONE', #141, .T. ) ;
#328 = VERTEX_POINT ( 'NONE', #170 ) ;
#329 = ORIENTED_EDGE ( 'NONE', *, *, #202, .T. ) ;
#330 = CARTESIAN_POINT ( 'NONE',  ( 1.530808498934191800E-016, 8.000000000000000000, 1.250000000000000200 ) ) ;
#331 = DIRECTION ( 'NONE',  ( 0.0000000000000000000, 1.000000000000000000, 0.0000000000000000000 ) ) ;
#332 = CYLINDRICAL_SURFACE ( 'NONE', #302, 1.250000000000000200 ) ;
#333 = ORIENTED_EDGE ( 'NONE', *, *, #296, .F. ) ;
#334 = EDGE_CURVE ( 'NONE', #283, #328, #66, .T. ) ;
#335 = DIRECTION ( 'NONE',  ( 0.0000000000000000000, 1.000000000000000000, 0.0000000000000000000 ) ) ;
#336 = CIRCLE ( 'NONE', #115, 1.250000000000000200 ) ;
#337 = LINE ( 'NONE', #314, #359 ) ;
#338 = PRODUCT_DEFINITION_SHAPE ( 'NONE', 'NONE',  #119 ) ;
#339 = DIRECTION ( 'NONE',  ( -0.0000000000000000000, -1.000000000000000000, -0.0000000000000000000 ) ) ;
#340 = DIRECTION ( 'NONE',  ( 0.0000000000000000000, 0.0000000000000000000, 1.000000000000000000 ) ) ;
#341 = CIRCLE ( 'NONE', #32, 3.000000000000000400 ) ;
#342 = ORIENTED_EDGE ( 'NONE', *, *, #68, .T. ) ;
#343 = EDGE_CURVE ( 'NONE', #100, #161, #341, .T. ) ;
#344 = DIRECTION ( 'NONE',  ( 0.0000000000000000000, -0.0000000000000000000, 1.000000000000000000 ) ) ;
#345 = EDGE_CURVE ( 'NONE', #206, #139, #154, .T. ) ;
#346 = CARTESIAN_POINT ( 'NONE',  ( 1.530808498934191800E-016, 0.0000000000000000000, 1.250000000000000200 ) ) ;
#347 = CYLINDRICAL_SURFACE ( 'NONE', #148, 1.450000000000000000 ) ;
#348 = DIRECTION ( 'NONE',  ( 0.0000000000000000000, 0.0000000000000000000, -1.000000000000000000 ) ) ;
#349 = AXIS2_PLACEMENT_3D ( 'NONE', #91, #267, #64 ) ;
#350 = DIRECTION ( 'NONE',  ( 0.0000000000000000000, 1.000000000000000000, 0.0000000000000000000 ) ) ;
#351 = DIRECTION ( 'NONE',  ( 8.659560562354992000E-017, 0.7071067811865426900, -0.7071067811865522400 ) ) ;
#352 = ADVANCED_FACE ( 'NONE', ( #358 ), #122, .F. ) ;
#353 = DIRECTION ( 'NONE',  ( 0.0000000000000000000, 1.000000000000000000, 0.0000000000000000000 ) ) ;
#354 = CARTESIAN_POINT ( 'NONE',  ( 0.0000000000000000000, 20.00000000000000000, 0.0000000000000000000 ) ) ;
#355 = PRODUCT_DEFINITION_FORMATION_WITH_SPECIFIED_SOURCE ( 'ANY', '', #180, .NOT_KNOWN. ) ;
#356 = DIRECTION ( 'NONE',  ( 0.0000000000000000000, 1.000000000000000000, 0.0000000000000000000 ) ) ;
#357 =( GEOMETRIC_REPRESENTATION_CONTEXT ( 3 ) GLOBAL_UNCERTAINTY_ASSIGNED_CONTEXT ( ( #309 ) ) GLOBAL_UNIT_ASSIGNED_CONTEXT ( ( #246, #251, #191 ) ) REPRESENTATION_CONTEXT ( 'NONE', 'WORKASPACE' ) );
#358 = FACE_OUTER_BOUND ( 'NONE', #117, .T. ) ;
#359 = VECTOR ( 'NONE', #207, 1000.000000000000200 ) ;
#360 = APPLICATION_PROTOCOL_DEFINITION ( 'draft international standard', 'automotive_design', 1998, #299 ) ;
#361 = FILL_AREA_STYLE ('',( #160 ) ) ;
#362 = ORIENTED_EDGE ( 'NONE', *, *, #345, .F. ) ;
#363 = EDGE_LOOP ( 'NONE', ( #220, #300, #289, #16 ) ) ;
#364 = CARTESIAN_POINT ( 'NONE',  ( 0.0000000000000000000, 0.0000000000000000000, 0.0000000000000000000 ) ) ;
#365 = EDGE_CURVE ( 'NONE', #328, #283, #209, .T. ) ;
#366 = DIRECTION ( 'NONE',  ( 0.0000000000000000000, 0.0000000000000000000, 1.000000000000000000 ) ) ;
#367 = DIRECTION ( 'NONE',  ( 0.0000000000000000000, 0.0000000000000000000, 1.000000000000000000 ) ) ;
#368 = VECTOR ( 'NONE', #151, 1000.000000000000000 ) ;
#369 = ORIENTED_EDGE ( 'NONE', *, *, #253, .F. ) ;
#370 = EDGE_CURVE ( 'NONE', #328, #294, #272, .T. ) ;
ENDSEC;
END-ISO-10303-21;
