ISO-10303-21;
HEADER;
FILE_DESCRIPTION (( 'STEP AP214' ),
    '1' );
FILE_NAME ('23056~2.STEP',
    '2017-07-04T13:51:54',
    ( '' ),
    ( '' ),
    'SwSTEP 2.0',
    'SolidWorks 2016',
    '' );
FILE_SCHEMA (( 'AUTOMOTIVE_DESIGN' ));
ENDSEC;

DATA;
#1 = UNCERTAINTY_MEASURE_WITH_UNIT (LENGTH_MEASURE( 1.000000000000000100E-005 ), #280, 'distance_accuracy_value', 'NONE');
#2 = CARTESIAN_POINT ( 'NONE',  ( -0.7639320225002119700, 2.030904302649453500E-016, -22.00000000000000000 ) ) ;
#3 = TOROIDAL_SURFACE ( 'NONE', #294, 0.7639320225002119700, 2.000000000000000000 ) ;
#4 = DIRECTION ( 'NONE',  ( -0.0000000000000000000, -0.0000000000000000000, -1.000000000000000000 ) ) ;
#5 = FACE_OUTER_BOUND ( 'NONE', #45, .T. ) ;
#6 = STYLED_ITEM ( 'NONE', ( #84 ), #114 ) ;
#7 = UNCERTAINTY_MEASURE_WITH_UNIT (LENGTH_MEASURE( 1.000000000000000100E-005 ), #86, 'distance_accuracy_value', 'NONE');
#8 = CIRCLE ( 'NONE', #165, 1.649999999999989900 ) ;
#9 = ORIENTED_EDGE ( 'NONE', *, *, #263, .T. ) ;
#10 =( NAMED_UNIT ( * ) SI_UNIT ( $, .STERADIAN. ) SOLID_ANGLE_UNIT ( ) );
#11 = EDGE_CURVE ( 'NONE', #240, #346, #230, .T. ) ;
#12 = DIRECTION ( 'NONE',  ( 0.4472135954999579300, 0.0000000000000000000, 0.8944271909999158600 ) ) ;
#13 = VERTEX_POINT ( 'NONE', #162 ) ;
#14 = AXIS2_PLACEMENT_3D ( 'NONE', #137, #77, #363 ) ;
#15 = EDGE_CURVE ( 'NONE', #235, #275, #265, .T. ) ;
#16 =( NAMED_UNIT ( * ) PLANE_ANGLE_UNIT ( ) SI_UNIT ( $, .RADIAN. ) );
#17 = CYLINDRICAL_SURFACE ( 'NONE', #279, 1.649999999999993500 ) ;
#18 = ADVANCED_BREP_SHAPE_REPRESENTATION ( '23056~2', ( #114, #228 ), #376 ) ;
#19 = DIRECTION ( 'NONE',  ( -0.0000000000000000000, -0.0000000000000000000, 1.000000000000000000 ) ) ;
#20 = PRODUCT_DEFINITION_FORMATION_WITH_SPECIFIED_SOURCE ( 'ANY', '', #313, .NOT_KNOWN. ) ;
#21 = DIRECTION ( 'NONE',  ( 1.000000000000000000, 0.0000000000000000000, 0.0000000000000000000 ) ) ;
#22 = FACE_OUTER_BOUND ( 'NONE', #211, .T. ) ;
#23 = AXIS2_PLACEMENT_3D ( 'NONE', #81, #285, #111 ) ;
#24 = DIRECTION ( 'NONE',  ( 1.000000000000000000, 0.0000000000000000000, 0.0000000000000000000 ) ) ;
#25 = VECTOR ( 'NONE', #125, 1000.000000000000000 ) ;
#26 = ADVANCED_FACE ( 'NONE', ( #199 ), #267, .F. ) ;
#27 = ORIENTED_EDGE ( 'NONE', *, *, #126, .T. ) ;
#28 = CARTESIAN_POINT ( 'NONE',  ( 1.649999999999997000, 0.0000000000000000000, -13.50000000000000000 ) ) ;
#29 = PLANE ( 'NONE',  #23 ) ;
#30 = DIRECTION ( 'NONE',  ( -0.0000000000000000000, -0.0000000000000000000, 1.000000000000000000 ) ) ;
#31 = AXIS2_PLACEMENT_3D ( 'NONE', #351, #190, #74 ) ;
#32 = CARTESIAN_POINT ( 'NONE',  ( 0.0000000000000000000, 0.0000000000000000000, -13.99999999999999800 ) ) ;
#33 = VECTOR ( 'NONE', #198, 1000.000000000000000 ) ;
#34 = EDGE_LOOP ( 'NONE', ( #247, #307, #214, #149 ) ) ;
#35 =( NAMED_UNIT ( * ) PLANE_ANGLE_UNIT ( ) SI_UNIT ( $, .RADIAN. ) );
#36 = LINE ( 'NONE', #227, #50 ) ;
#37 = FILL_AREA_STYLE ('',( #258 ) ) ;
#38 = EDGE_LOOP ( 'NONE', ( #127, #200, #65, #352 ) ) ;
#39 = DIRECTION ( 'NONE',  ( 0.0000000000000000000, 0.0000000000000000000, 1.000000000000000000 ) ) ;
#40 = ORIENTED_EDGE ( 'NONE', *, *, #361, .F. ) ;
#41 = EDGE_LOOP ( 'NONE', ( #207, #226 ) ) ;
#42 = EDGE_LOOP ( 'NONE', ( #296, #268, #206, #360 ) ) ;
#43 =( LENGTH_UNIT ( ) NAMED_UNIT ( * ) SI_UNIT ( .MILLI., .METRE. ) );
#44 = VECTOR ( 'NONE', #57, 1000.000000000000000 ) ;
#45 = EDGE_LOOP ( 'NONE', ( #246, #251, #335, #326 ) ) ;
#46 = ORIENTED_EDGE ( 'NONE', *, *, #99, .T. ) ;
#47 = PRESENTATION_LAYER_ASSIGNMENT (  '', '', ( #6 ) ) ;
#48 = DIRECTION ( 'NONE',  ( 0.0000000000000000000, 0.0000000000000000000, 1.000000000000000000 ) ) ;
#49 = CARTESIAN_POINT ( 'NONE',  ( -1.649999999999997000, 2.020667218593129100E-016, -13.50000000000000000 ) ) ;
#50 = VECTOR ( 'NONE', #231, 1000.000000000000000 ) ;
#51 = DIRECTION ( 'NONE',  ( -0.0000000000000000000, -0.0000000000000000000, 1.000000000000000000 ) ) ;
#52 = COLOUR_RGB ( '',0.2509803921568627400, 0.2509803921568627400, 0.2509803921568627400 ) ;
#53 = AXIS2_PLACEMENT_3D ( 'NONE', #32, #141, #174 ) ;
#54 = DIRECTION ( 'NONE',  ( -0.0000000000000000000, -0.0000000000000000000, 1.000000000000000000 ) ) ;
#55 = SURFACE_STYLE_FILL_AREA ( #219 ) ;
#56 = CARTESIAN_POINT ( 'NONE',  ( 0.7639320225002119700, 0.0000000000000000000, -22.00000000000000000 ) ) ;
#57 = DIRECTION ( 'NONE',  ( -0.0000000000000000000, -0.0000000000000000000, 1.000000000000000000 ) ) ;
#58 = TOROIDAL_SURFACE ( 'NONE', #342, 0.7639320225002119700, 2.000000000000000000 ) ;
#59 = VERTEX_POINT ( 'NONE', #244 ) ;
#60 =( GEOMETRIC_REPRESENTATION_CONTEXT ( 3 ) GLOBAL_UNCERTAINTY_ASSIGNED_CONTEXT ( ( #188 ) ) GLOBAL_UNIT_ASSIGNED_CONTEXT ( ( #225, #201, #170 ) ) REPRESENTATION_CONTEXT ( 'NONE', 'WORKASPACE' ) );
#61 = EDGE_LOOP ( 'NONE', ( #80, #312 ) ) ;
#62 = AXIS2_PLACEMENT_3D ( 'NONE', #248, #71, #21 ) ;
#63 = SURFACE_STYLE_FILL_AREA ( #37 ) ;
#64 = CIRCLE ( 'NONE', #82, 1.649999999999997000 ) ;
#65 = ORIENTED_EDGE ( 'NONE', *, *, #105, .F. ) ;
#66 = SURFACE_SIDE_STYLE ('',( #55 ) ) ;
#67 = FILL_AREA_STYLE_COLOUR ( '', #52 ) ;
#68 = ORIENTED_EDGE ( 'NONE', *, *, #121, .T. ) ;
#69 = SURFACE_STYLE_USAGE ( .BOTH. , #66 ) ;
#70 = CARTESIAN_POINT ( 'NONE',  ( -6.000000000000000900, 7.347880794884120700E-016, -22.00000000000000000 ) ) ;
#71 = DIRECTION ( 'NONE',  ( -0.0000000000000000000, -0.0000000000000000000, 1.000000000000000000 ) ) ;
#72 = CIRCLE ( 'NONE', #182, 2.000000000000000000 ) ;
#73 = ORIENTED_EDGE ( 'NONE', *, *, #185, .T. ) ;
#74 = DIRECTION ( 'NONE',  ( 1.000000000000000000, 0.0000000000000000000, 0.0000000000000000000 ) ) ;
#75 = ADVANCED_FACE ( 'NONE', ( #5 ), #350, .F. ) ;
#76 = STYLED_ITEM ( 'NONE', ( #189 ), #18 ) ;
#77 = DIRECTION ( 'NONE',  ( -0.0000000000000000000, -0.0000000000000000000, -1.000000000000000000 ) ) ;
#78 = DIRECTION ( 'NONE',  ( -0.0000000000000000000, -0.0000000000000000000, 1.000000000000000000 ) ) ;
#79 = PRESENTATION_STYLE_ASSIGNMENT (( #164 ) ) ;
#80 = ORIENTED_EDGE ( 'NONE', *, *, #272, .F. ) ;
#81 = CARTESIAN_POINT ( 'NONE',  ( 0.0000000000000000000, 0.0000000000000000000, 0.0000000000000000000 ) ) ;
#82 = AXIS2_PLACEMENT_3D ( 'NONE', #139, #30, #110 ) ;
#83 = DIRECTION ( 'NONE',  ( 0.0000000000000000000, -1.000000000000000000, 0.0000000000000000000 ) ) ;
#84 = PRESENTATION_STYLE_ASSIGNMENT (( #197 ) ) ;
#85 = VERTEX_POINT ( 'NONE', #94 ) ;
#86 =( LENGTH_UNIT ( ) NAMED_UNIT ( * ) SI_UNIT ( .MILLI., .METRE. ) );
#87 = ORIENTED_EDGE ( 'NONE', *, *, #134, .T. ) ;
#88 = AXIS2_PLACEMENT_3D ( 'NONE', #332, #233, #255 ) ;
#89 =( NAMED_UNIT ( * ) SI_UNIT ( $, .STERADIAN. ) SOLID_ANGLE_UNIT ( ) );
#90 = DIRECTION ( 'NONE',  ( 1.000000000000000000, 0.0000000000000000000, 0.0000000000000000000 ) ) ;
#91 = SURFACE_SIDE_STYLE ('',( #63 ) ) ;
#92 = ORIENTED_EDGE ( 'NONE', *, *, #173, .T. ) ;
#93 = PRESENTATION_LAYER_ASSIGNMENT (  '', '', ( #241 ) ) ;
#94 = CARTESIAN_POINT ( 'NONE',  ( -6.000000000000000900, 7.347880794884120700E-016, -13.99999999999999800 ) ) ;
#95 = AXIS2_PLACEMENT_3D ( 'NONE', #368, #78, #146 ) ;
#96 = CIRCLE ( 'NONE', #62, 2.552786404500044800 ) ;
#97 = ORIENTED_EDGE ( 'NONE', *, *, #348, .T. ) ;
#98 = CARTESIAN_POINT ( 'NONE',  ( 1.649999999999993500, 0.0000000000000000000, 0.0000000000000000000 ) ) ;
#99 = EDGE_CURVE ( 'NONE', #112, #240, #366, .T. ) ;
#100 =( NAMED_UNIT ( * ) SI_UNIT ( $, .STERADIAN. ) SOLID_ANGLE_UNIT ( ) );
#101 = AXIS2_PLACEMENT_3D ( 'NONE', #204, #333, #365 ) ;
#102 = MECHANICAL_DESIGN_GEOMETRIC_PRESENTATION_REPRESENTATION (  '', ( #6 ), #60 ) ;
#103 = DIRECTION ( 'NONE',  ( -0.4472135954999579300, 5.476786982642026200E-017, 0.8944271909999158600 ) ) ;
#104 = CIRCLE ( 'NONE', #215, 6.000000000000000900 ) ;
#105 = EDGE_CURVE ( 'NONE', #235, #374, #205, .T. ) ;
#106 = ADVANCED_FACE ( 'NONE', ( #316 ), #256, .F. ) ;
#107 = CARTESIAN_POINT ( 'NONE',  ( 0.7639320225002119700, 0.0000000000000000000, -19.99999999999999600 ) ) ;
#108 = ADVANCED_FACE ( 'NONE', ( #325 ), #17, .F. ) ;
#109 = AXIS2_PLACEMENT_3D ( 'NONE', #281, #372, #232 ) ;
#110 = DIRECTION ( 'NONE',  ( 1.000000000000000000, 0.0000000000000000000, 0.0000000000000000000 ) ) ;
#111 = DIRECTION ( 'NONE',  ( 1.000000000000000000, 0.0000000000000000000, -0.0000000000000000000 ) ) ;
#112 = VERTEX_POINT ( 'NONE', #353 ) ;
#113 = VERTEX_POINT ( 'NONE', #276 ) ;
#114 = MANIFOLD_SOLID_BREP ( 'Verrundung2', #132 ) ;
#115 = CARTESIAN_POINT ( 'NONE',  ( 0.0000000000000000000, 0.0000000000000000000, -22.00000000000000000 ) ) ;
#116 = APPLICATION_CONTEXT ( 'automotive_design' ) ;
#117 = FACE_OUTER_BOUND ( 'NONE', #38, .T. ) ;
#118 = DIRECTION ( 'NONE',  ( 1.000000000000000000, 0.0000000000000000000, 0.0000000000000000000 ) ) ;
#119 = PRESENTATION_LAYER_ASSIGNMENT (  '', '', ( #76 ) ) ;
#120 = APPLICATION_PROTOCOL_DEFINITION ( 'draft international standard', 'automotive_design', 1998, #116 ) ;
#121 = EDGE_CURVE ( 'NONE', #112, #113, #245, .T. ) ;
#122 = SURFACE_STYLE_FILL_AREA ( #355 ) ;
#123 = ORIENTED_EDGE ( 'NONE', *, *, #185, .F. ) ;
#124 = AXIS2_PLACEMENT_3D ( 'NONE', #309, #54, #337 ) ;
#125 = DIRECTION ( 'NONE',  ( -0.0000000000000000000, -0.0000000000000000000, 1.000000000000000000 ) ) ;
#126 = EDGE_CURVE ( 'NONE', #374, #235, #96, .T. ) ;
#127 = ORIENTED_EDGE ( 'NONE', *, *, #142, .F. ) ;
#128 = DIRECTION ( 'NONE',  ( 0.8660254037844373800, 0.0000000000000000000, 0.5000000000000022200 ) ) ;
#129 = PRODUCT_RELATED_PRODUCT_CATEGORY ( 'part', '', ( #313 ) ) ;
#130 = LINE ( 'NONE', #203, #44 ) ;
#131 = EDGE_CURVE ( 'NONE', #374, #85, #229, .T. ) ;
#132 = CLOSED_SHELL ( 'NONE', ( #367, #169, #106, #108, #283, #202, #26, #252, #75, #250, #362, #140 ) ) ;
#133 = CARTESIAN_POINT ( 'NONE',  ( 0.0000000000000000000, 0.0000000000000000000, 0.0000000000000000000 ) ) ;
#134 = EDGE_CURVE ( 'NONE', #85, #343, #344, .T. ) ;
#135 = CARTESIAN_POINT ( 'NONE',  ( 0.0000000000000000000, 0.0000000000000000000, -20.89442719099991300 ) ) ;
#136 = CARTESIAN_POINT ( 'NONE',  ( 0.0000000000000000000, 0.0000000000000000000, -19.99999999999999600 ) ) ;
#137 = CARTESIAN_POINT ( 'NONE',  ( 0.0000000000000000000, 0.0000000000000000000, -22.00000000000000000 ) ) ;
#138 = DIRECTION ( 'NONE',  ( -0.0000000000000000000, -0.0000000000000000000, 1.000000000000000000 ) ) ;
#139 = CARTESIAN_POINT ( 'NONE',  ( 0.0000000000000000000, 0.0000000000000000000, -13.50000000000000000 ) ) ;
#140 = ADVANCED_FACE ( 'NONE', ( #330 ), #58, .T. ) ;
#141 = DIRECTION ( 'NONE',  ( -0.0000000000000000000, -0.0000000000000000000, 1.000000000000000000 ) ) ;
#142 = EDGE_CURVE ( 'NONE', #289, #262, #304, .T. ) ;
#143 = PRESENTATION_STYLE_ASSIGNMENT (( #69 ) ) ;
#144 = EDGE_LOOP ( 'NONE', ( #358, #27, #160, #177 ) ) ;
#145 = DIRECTION ( 'NONE',  ( 0.0000000000000000000, 0.0000000000000000000, 1.000000000000000000 ) ) ;
#146 = DIRECTION ( 'NONE',  ( 1.000000000000000000, 0.0000000000000000000, 0.0000000000000000000 ) ) ;
#147 = DIRECTION ( 'NONE',  ( 1.224646799147353200E-016, 1.000000000000000000, -0.0000000000000000000 ) ) ;
#148 = CIRCLE ( 'NONE', #328, 2.000000000000001800 ) ;
#149 = ORIENTED_EDGE ( 'NONE', *, *, #11, .F. ) ;
#150 = DIRECTION ( 'NONE',  ( -0.0000000000000000000, -0.0000000000000000000, 1.000000000000000000 ) ) ;
#151 = APPLICATION_PROTOCOL_DEFINITION ( 'draft international standard', 'automotive_design', 1998, #317 ) ;
#152 = CARTESIAN_POINT ( 'NONE',  ( -2.552786404500044800, 5.237071247030990900E-016, -20.89442719099991300 ) ) ;
#153 =( GEOMETRIC_REPRESENTATION_CONTEXT ( 3 ) GLOBAL_UNCERTAINTY_ASSIGNED_CONTEXT ( ( #318 ) ) GLOBAL_UNIT_ASSIGNED_CONTEXT ( ( #43, #323, #10 ) ) REPRESENTATION_CONTEXT ( 'NONE', 'WORKASPACE' ) );
#154 = EDGE_CURVE ( 'NONE', #13, #346, #8, .T. ) ;
#155 = VECTOR ( 'NONE', #277, 1000.000000000000000 ) ;
#156 = PRODUCT_DEFINITION ( 'UNKNOWN', '', #20, #208 ) ;
#157 = CYLINDRICAL_SURFACE ( 'NONE', #184, 6.000000000000000900 ) ;
#158 = MECHANICAL_DESIGN_GEOMETRIC_PRESENTATION_REPRESENTATION (  '', ( #76 ), #308 ) ;
#159 = DIRECTION ( 'NONE',  ( -0.0000000000000000000, -0.0000000000000000000, 1.000000000000000000 ) ) ;
#160 = ORIENTED_EDGE ( 'NONE', *, *, #15, .T. ) ;
#161 = EDGE_CURVE ( 'NONE', #289, #374, #72, .T. ) ;
#162 = CARTESIAN_POINT ( 'NONE',  ( -1.649999999999989900, 2.020667218593122900E-016, 1.353190020973724000E-015 ) ) ;
#163 = DIRECTION ( 'NONE',  ( 1.000000000000000000, 0.0000000000000000000, 0.0000000000000000000 ) ) ;
#164 = SURFACE_STYLE_USAGE ( .BOTH. , #223 ) ;
#165 = AXIS2_PLACEMENT_3D ( 'NONE', #327, #51, #168 ) ;
#166 = CARTESIAN_POINT ( 'NONE',  ( 0.0000000000000000000, 0.0000000000000000000, -13.99999999999999800 ) ) ;
#167 = AXIS2_PLACEMENT_3D ( 'NONE', #212, #314, #341 ) ;
#168 = DIRECTION ( 'NONE',  ( 1.000000000000000000, 0.0000000000000000000, 0.0000000000000000000 ) ) ;
#169 = ADVANCED_FACE ( 'NONE', ( #297 ), #373, .T. ) ;
#170 =( NAMED_UNIT ( * ) SI_UNIT ( $, .STERADIAN. ) SOLID_ANGLE_UNIT ( ) );
#171 = EDGE_CURVE ( 'NONE', #113, #240, #64, .T. ) ;
#172 = ORIENTED_EDGE ( 'NONE', *, *, #222, .F. ) ;
#173 = EDGE_CURVE ( 'NONE', #262, #235, #148, .T. ) ;
#174 = DIRECTION ( 'NONE',  ( 1.000000000000000000, 0.0000000000000000000, 0.0000000000000000000 ) ) ;
#175 = DIRECTION ( 'NONE',  ( 0.0000000000000000000, 0.0000000000000000000, 1.000000000000000000 ) ) ;
#176 = CIRCLE ( 'NONE', #124, 1.649999999999989900 ) ;
#177 = ORIENTED_EDGE ( 'NONE', *, *, #348, .F. ) ;
#178 = CARTESIAN_POINT ( 'NONE',  ( 0.0000000000000000000, 0.0000000000000000000, -19.99999999999999600 ) ) ;
#179 = EDGE_LOOP ( 'NONE', ( #322, #46, #9 ) ) ;
#180 = CARTESIAN_POINT ( 'NONE',  ( 0.0000000000000000000, 0.0000000000000000000, -13.99999999999999800 ) ) ;
#181 = EDGE_CURVE ( 'NONE', #275, #85, #224, .T. ) ;
#182 = AXIS2_PLACEMENT_3D ( 'NONE', #311, #147, #254 ) ;
#183 = PRODUCT_DEFINITION_SHAPE ( 'NONE', 'NONE',  #156 ) ;
#184 = AXIS2_PLACEMENT_3D ( 'NONE', #115, #175, #370 ) ;
#185 = EDGE_CURVE ( 'NONE', #343, #59, #288, .T. ) ;
#186 = ORIENTED_EDGE ( 'NONE', *, *, #134, .F. ) ;
#187 = CARTESIAN_POINT ( 'NONE',  ( 0.0000000000000000000, 0.0000000000000000000, -22.00000000000000000 ) ) ;
#188 = UNCERTAINTY_MEASURE_WITH_UNIT (LENGTH_MEASURE( 1.000000000000000100E-005 ), #225, 'distance_accuracy_value', 'NONE');
#189 = PRESENTATION_STYLE_ASSIGNMENT (( #264 ) ) ;
#190 = DIRECTION ( 'NONE',  ( -0.0000000000000000000, -0.0000000000000000000, 1.000000000000000000 ) ) ;
#191 = COLOUR_RGB ( '',0.2509803921568627400, 0.2509803921568627400, 0.2509803921568627400 ) ;
#192 = AXIS2_PLACEMENT_3D ( 'NONE', #135, #138, #196 ) ;
#193 = VECTOR ( 'NONE', #12, 1000.000000000000100 ) ;
#194 = FILL_AREA_STYLE ('',( #249 ) ) ;
#195 = EDGE_LOOP ( 'NONE', ( #305, #68, #266 ) ) ;
#196 = DIRECTION ( 'NONE',  ( 1.000000000000000000, 0.0000000000000000000, 0.0000000000000000000 ) ) ;
#197 = SURFACE_STYLE_USAGE ( .BOTH. , #302 ) ;
#198 = DIRECTION ( 'NONE',  ( -0.8660254037844373800, 1.060575238724905300E-016, 0.5000000000000022200 ) ) ;
#199 = FACE_OUTER_BOUND ( 'NONE', #41, .T. ) ;
#200 = ORIENTED_EDGE ( 'NONE', *, *, #161, .T. ) ;
#201 =( NAMED_UNIT ( * ) PLANE_ANGLE_UNIT ( ) SI_UNIT ( $, .RADIAN. ) );
#202 = ADVANCED_FACE ( 'NONE', ( #357 ), #221, .T. ) ;
#203 = CARTESIAN_POINT ( 'NONE',  ( -1.649999999999993500, 2.020667218593124900E-016, 0.0000000000000000000 ) ) ;
#204 = CARTESIAN_POINT ( 'NONE',  ( 0.0000000000000000000, 0.0000000000000000000, 0.0000000000000000000 ) ) ;
#205 = CIRCLE ( 'NONE', #192, 2.552786404500044800 ) ;
#206 = ORIENTED_EDGE ( 'NONE', *, *, #181, .F. ) ;
#207 = ORIENTED_EDGE ( 'NONE', *, *, #369, .T. ) ;
#208 = PRODUCT_DEFINITION_CONTEXT ( 'detailed design', #317, 'design' ) ;
#209 = CARTESIAN_POINT ( 'NONE',  ( 1.649999999999989900, 0.0000000000000000000, 1.353190020973724000E-015 ) ) ;
#210 = AXIS2_PLACEMENT_3D ( 'NONE', #180, #150, #340 ) ;
#211 = EDGE_LOOP ( 'NONE', ( #298, #73 ) ) ;
#212 = CARTESIAN_POINT ( 'NONE',  ( 0.0000000000000000000, 0.0000000000000000000, -13.99999999999999800 ) ) ;
#213 = COLOUR_RGB ( '',0.2509803921568627400, 0.2509803921568627400, 0.2509803921568627400 ) ;
#214 = ORIENTED_EDGE ( 'NONE', *, *, #154, .T. ) ;
#215 = AXIS2_PLACEMENT_3D ( 'NONE', #331, #145, #364 ) ;
#216 = CIRCLE ( 'NONE', #347, 0.7639320225002119700 ) ;
#217 = CIRCLE ( 'NONE', #95, 1.649999999999997000 ) ;
#218 = ORIENTED_EDGE ( 'NONE', *, *, #126, .F. ) ;
#219 = FILL_AREA_STYLE ('',( #269 ) ) ;
#220 = CARTESIAN_POINT ( 'NONE',  ( 0.0000000000000000000, 0.0000000000000000000, 0.0000000000000000000 ) ) ;
#221 = CYLINDRICAL_SURFACE ( 'NONE', #88, 6.000000000000000900 ) ;
#222 = EDGE_CURVE ( 'NONE', #59, #343, #104, .T. ) ;
#223 = SURFACE_SIDE_STYLE ('',( #122 ) ) ;
#224 = CIRCLE ( 'NONE', #53, 6.000000000000000900 ) ;
#225 =( LENGTH_UNIT ( ) NAMED_UNIT ( * ) SI_UNIT ( .MILLI., .METRE. ) );
#226 = ORIENTED_EDGE ( 'NONE', *, *, #142, .T. ) ;
#227 = CARTESIAN_POINT ( 'NONE',  ( 6.000000000000000900, 0.0000000000000000000, -22.00000000000000000 ) ) ;
#228 = AXIS2_PLACEMENT_3D ( 'NONE', #315, #375, #236 ) ;
#229 = LINE ( 'NONE', #354, #234 ) ;
#230 = LINE ( 'NONE', #98, #25 ) ;
#231 = DIRECTION ( 'NONE',  ( 0.0000000000000000000, 0.0000000000000000000, 1.000000000000000000 ) ) ;
#232 = DIRECTION ( 'NONE',  ( 1.000000000000000000, 0.0000000000000000000, 0.0000000000000000000 ) ) ;
#233 = DIRECTION ( 'NONE',  ( 0.0000000000000000000, 0.0000000000000000000, 1.000000000000000000 ) ) ;
#234 = VECTOR ( 'NONE', #103, 1000.000000000000100 ) ;
#235 = VERTEX_POINT ( 'NONE', #310 ) ;
#236 = DIRECTION ( 'NONE',  ( 1.000000000000000000, 0.0000000000000000000, 0.0000000000000000000 ) ) ;
#237 = COLOUR_RGB ( '',0.2509803921568627400, 0.2509803921568627400, 0.2509803921568627400 ) ;
#238 = EDGE_LOOP ( 'NONE', ( #243, #87, #172, #40 ) ) ;
#239 = EDGE_CURVE ( 'NONE', #113, #13, #130, .T. ) ;
#240 = VERTEX_POINT ( 'NONE', #28 ) ;
#241 = STYLED_ITEM ( 'NONE', ( #79 ), #108 ) ;
#242 = DIRECTION ( 'NONE',  ( 1.000000000000000000, 0.0000000000000000000, -0.0000000000000000000 ) ) ;
#243 = ORIENTED_EDGE ( 'NONE', *, *, #181, .T. ) ;
#244 = CARTESIAN_POINT ( 'NONE',  ( 6.000000000000000900, 0.0000000000000000000, 0.0000000000000000000 ) ) ;
#245 = LINE ( 'NONE', #49, #33 ) ;
#246 = ORIENTED_EDGE ( 'NONE', *, *, #239, .F. ) ;
#247 = ORIENTED_EDGE ( 'NONE', *, *, #171, .F. ) ;
#248 = CARTESIAN_POINT ( 'NONE',  ( 0.0000000000000000000, 0.0000000000000000000, -20.89442719099991300 ) ) ;
#249 = FILL_AREA_STYLE_COLOUR ( '', #237 ) ;
#250 = ADVANCED_FACE ( 'NONE', ( #295 ), #287, .F. ) ;
#251 = ORIENTED_EDGE ( 'NONE', *, *, #263, .F. ) ;
#252 = ADVANCED_FACE ( 'NONE', ( #334, #22 ), #29, .T. ) ;
#253 = PRESENTATION_LAYER_ASSIGNMENT (  '', '', ( #284 ) ) ;
#254 = DIRECTION ( 'NONE',  ( -1.000000000000000000, 1.224646799147353200E-016, 0.0000000000000000000 ) ) ;
#255 = DIRECTION ( 'NONE',  ( 1.000000000000000000, 0.0000000000000000000, 0.0000000000000000000 ) ) ;
#256 = CONICAL_SURFACE ( 'NONE', #31, 1.649999999999997000, 1.047197551196595200 ) ;
#257 = ORIENTED_EDGE ( 'NONE', *, *, #361, .T. ) ;
#258 = FILL_AREA_STYLE_COLOUR ( '', #191 ) ;
#259 = FACE_OUTER_BOUND ( 'NONE', #144, .T. ) ;
#260 =( GEOMETRIC_REPRESENTATION_CONTEXT ( 3 ) GLOBAL_UNCERTAINTY_ASSIGNED_CONTEXT ( ( #1 ) ) GLOBAL_UNIT_ASSIGNED_CONTEXT ( ( #280, #16, #100 ) ) REPRESENTATION_CONTEXT ( 'NONE', 'WORKASPACE' ) );
#261 = PRODUCT_CONTEXT ( 'NONE', #116, 'mechanical' ) ;
#262 = VERTEX_POINT ( 'NONE', #56 ) ;
#263 = EDGE_CURVE ( 'NONE', #240, #113, #217, .T. ) ;
#264 = SURFACE_STYLE_USAGE ( .BOTH. , #91 ) ;
#265 = LINE ( 'NONE', #274, #193 ) ;
#266 = ORIENTED_EDGE ( 'NONE', *, *, #171, .T. ) ;
#267 = PLANE ( 'NONE',  #324 ) ;
#268 = ORIENTED_EDGE ( 'NONE', *, *, #131, .T. ) ;
#269 = FILL_AREA_STYLE_COLOUR ( '', #213 ) ;
#270 = CARTESIAN_POINT ( 'NONE',  ( 1.649999999999997000, 0.0000000000000000000, -13.50000000000000000 ) ) ;
#271 = AXIS2_PLACEMENT_3D ( 'NONE', #166, #329, #24 ) ;
#272 = EDGE_CURVE ( 'NONE', #346, #13, #176, .T. ) ;
#273 = VECTOR ( 'NONE', #128, 1000.000000000000000 ) ;
#274 = CARTESIAN_POINT ( 'NONE',  ( 6.000000000000000900, 0.0000000000000000000, -13.99999999999999800 ) ) ;
#275 = VERTEX_POINT ( 'NONE', #282 ) ;
#276 = CARTESIAN_POINT ( 'NONE',  ( -1.649999999999996800, 2.020667218593129100E-016, -13.50000000000000000 ) ) ;
#277 = DIRECTION ( 'NONE',  ( 0.0000000000000000000, 0.0000000000000000000, 1.000000000000000000 ) ) ;
#278 = EDGE_LOOP ( 'NONE', ( #301, #291, #92, #218 ) ) ;
#279 = AXIS2_PLACEMENT_3D ( 'NONE', #133, #19, #163 ) ;
#280 =( LENGTH_UNIT ( ) NAMED_UNIT ( * ) SI_UNIT ( .MILLI., .METRE. ) );
#281 = CARTESIAN_POINT ( 'NONE',  ( 0.0000000000000000000, 0.0000000000000000000, -13.50000000000000000 ) ) ;
#282 = CARTESIAN_POINT ( 'NONE',  ( 6.000000000000000900, 0.0000000000000000000, -13.99999999999999800 ) ) ;
#283 = ADVANCED_FACE ( 'NONE', ( #339 ), #157, .T. ) ;
#284 = STYLED_ITEM ( 'NONE', ( #143 ), #75 ) ;
#285 = DIRECTION ( 'NONE',  ( 0.0000000000000000000, 0.0000000000000000000, 1.000000000000000000 ) ) ;
#286 = DIRECTION ( 'NONE',  ( 0.0000000000000000000, 0.0000000000000000000, -1.000000000000000000 ) ) ;
#287 = CONICAL_SURFACE ( 'NONE', #109, 1.649999999999997000, 1.047197551196595200 ) ;
#288 = CIRCLE ( 'NONE', #101, 6.000000000000000900 ) ;
#289 = VERTEX_POINT ( 'NONE', #2 ) ;
#290 = CARTESIAN_POINT ( 'NONE',  ( -6.000000000000000900, 7.347880794884120700E-016, 0.0000000000000000000 ) ) ;
#291 = ORIENTED_EDGE ( 'NONE', *, *, #369, .F. ) ;
#292 = CARTESIAN_POINT ( 'NONE',  ( 0.0000000000000000000, 0.0000000000000000000, -22.00000000000000000 ) ) ;
#293 =( NAMED_UNIT ( * ) PLANE_ANGLE_UNIT ( ) SI_UNIT ( $, .RADIAN. ) );
#294 = AXIS2_PLACEMENT_3D ( 'NONE', #178, #39, #90 ) ;
#295 = FACE_OUTER_BOUND ( 'NONE', #179, .T. ) ;
#296 = ORIENTED_EDGE ( 'NONE', *, *, #105, .T. ) ;
#297 = FACE_OUTER_BOUND ( 'NONE', #42, .T. ) ;
#298 = ORIENTED_EDGE ( 'NONE', *, *, #222, .T. ) ;
#299 = MECHANICAL_DESIGN_GEOMETRIC_PRESENTATION_REPRESENTATION (  '', ( #284 ), #153 ) ;
#300 = DIRECTION ( 'NONE',  ( 0.0000000000000000000, 0.0000000000000000000, 1.000000000000000000 ) ) ;
#301 = ORIENTED_EDGE ( 'NONE', *, *, #161, .F. ) ;
#302 = SURFACE_SIDE_STYLE ('',( #321 ) ) ;
#303 = AXIS2_PLACEMENT_3D ( 'NONE', #220, #159, #349 ) ;
#304 = CIRCLE ( 'NONE', #14, 0.7639320225002119700 ) ;
#305 = ORIENTED_EDGE ( 'NONE', *, *, #99, .F. ) ;
#306 = DIRECTION ( 'NONE',  ( 1.000000000000000000, 0.0000000000000000000, 0.0000000000000000000 ) ) ;
#307 = ORIENTED_EDGE ( 'NONE', *, *, #239, .T. ) ;
#308 =( GEOMETRIC_REPRESENTATION_CONTEXT ( 3 ) GLOBAL_UNCERTAINTY_ASSIGNED_CONTEXT ( ( #7 ) ) GLOBAL_UNIT_ASSIGNED_CONTEXT ( ( #86, #293, #89 ) ) REPRESENTATION_CONTEXT ( 'NONE', 'WORKASPACE' ) );
#309 = CARTESIAN_POINT ( 'NONE',  ( 0.0000000000000000000, 0.0000000000000000000, 1.353190020973724000E-015 ) ) ;
#310 = CARTESIAN_POINT ( 'NONE',  ( 2.552786404500044800, 0.0000000000000000000, -20.89442719099991300 ) ) ;
#311 = CARTESIAN_POINT ( 'NONE',  ( -0.7639320225002119700, 9.355469061210485300E-017, -19.99999999999999600 ) ) ;
#312 = ORIENTED_EDGE ( 'NONE', *, *, #154, .F. ) ;
#313 = PRODUCT ( '23056~2', '23056~2', '', ( #261 ) ) ;
#314 = DIRECTION ( 'NONE',  ( -0.0000000000000000000, -0.0000000000000000000, 1.000000000000000000 ) ) ;
#315 = CARTESIAN_POINT ( 'NONE',  ( 0.0000000000000000000, 0.0000000000000000000, 0.0000000000000000000 ) ) ;
#316 = FACE_OUTER_BOUND ( 'NONE', #195, .T. ) ;
#317 = APPLICATION_CONTEXT ( 'automotive_design' ) ;
#318 = UNCERTAINTY_MEASURE_WITH_UNIT (LENGTH_MEASURE( 1.000000000000000100E-005 ), #43, 'distance_accuracy_value', 'NONE');
#319 =( NAMED_UNIT ( * ) SI_UNIT ( $, .STERADIAN. ) SOLID_ANGLE_UNIT ( ) );
#320 = SHAPE_DEFINITION_REPRESENTATION ( #183, #18 ) ;
#321 = SURFACE_STYLE_FILL_AREA ( #194 ) ;
#322 = ORIENTED_EDGE ( 'NONE', *, *, #121, .F. ) ;
#323 =( NAMED_UNIT ( * ) PLANE_ANGLE_UNIT ( ) SI_UNIT ( $, .RADIAN. ) );
#324 = AXIS2_PLACEMENT_3D ( 'NONE', #187, #300, #242 ) ;
#325 = FACE_OUTER_BOUND ( 'NONE', #34, .T. ) ;
#326 = ORIENTED_EDGE ( 'NONE', *, *, #272, .T. ) ;
#327 = CARTESIAN_POINT ( 'NONE',  ( 0.0000000000000000000, 0.0000000000000000000, 1.353190020973724000E-015 ) ) ;
#328 = AXIS2_PLACEMENT_3D ( 'NONE', #107, #83, #286 ) ;
#329 = DIRECTION ( 'NONE',  ( -0.0000000000000000000, -0.0000000000000000000, 1.000000000000000000 ) ) ;
#330 = FACE_OUTER_BOUND ( 'NONE', #278, .T. ) ;
#331 = CARTESIAN_POINT ( 'NONE',  ( 0.0000000000000000000, 0.0000000000000000000, 0.0000000000000000000 ) ) ;
#332 = CARTESIAN_POINT ( 'NONE',  ( 0.0000000000000000000, 0.0000000000000000000, -22.00000000000000000 ) ) ;
#333 = DIRECTION ( 'NONE',  ( 0.0000000000000000000, 0.0000000000000000000, 1.000000000000000000 ) ) ;
#334 = FACE_BOUND ( 'NONE', #61, .T. ) ;
#335 = ORIENTED_EDGE ( 'NONE', *, *, #11, .T. ) ;
#336 = MECHANICAL_DESIGN_GEOMETRIC_PRESENTATION_REPRESENTATION (  '', ( #241 ), #260 ) ;
#337 = DIRECTION ( 'NONE',  ( 1.000000000000000000, 0.0000000000000000000, 0.0000000000000000000 ) ) ;
#338 =( LENGTH_UNIT ( ) NAMED_UNIT ( * ) SI_UNIT ( .MILLI., .METRE. ) );
#339 = FACE_OUTER_BOUND ( 'NONE', #238, .T. ) ;
#340 = DIRECTION ( 'NONE',  ( 1.000000000000000000, 0.0000000000000000000, 0.0000000000000000000 ) ) ;
#341 = DIRECTION ( 'NONE',  ( 1.000000000000000000, 0.0000000000000000000, 0.0000000000000000000 ) ) ;
#342 = AXIS2_PLACEMENT_3D ( 'NONE', #136, #48, #306 ) ;
#343 = VERTEX_POINT ( 'NONE', #290 ) ;
#344 = LINE ( 'NONE', #70, #155 ) ;
#345 = EDGE_LOOP ( 'NONE', ( #186, #97, #257, #123 ) ) ;
#346 = VERTEX_POINT ( 'NONE', #209 ) ;
#347 = AXIS2_PLACEMENT_3D ( 'NONE', #292, #4, #118 ) ;
#348 = EDGE_CURVE ( 'NONE', #85, #275, #356, .T. ) ;
#349 = DIRECTION ( 'NONE',  ( 1.000000000000000000, 0.0000000000000000000, 0.0000000000000000000 ) ) ;
#350 = CYLINDRICAL_SURFACE ( 'NONE', #303, 1.649999999999993500 ) ;
#351 = CARTESIAN_POINT ( 'NONE',  ( 0.0000000000000000000, 0.0000000000000000000, -13.50000000000000000 ) ) ;
#352 = ORIENTED_EDGE ( 'NONE', *, *, #173, .F. ) ;
#353 = CARTESIAN_POINT ( 'NONE',  ( -3.539756001970542300E-015, 0.0000000000000000000, -14.45262794416288400 ) ) ;
#354 = CARTESIAN_POINT ( 'NONE',  ( -6.000000000000000900, 7.347880794884120700E-016, -13.99999999999999800 ) ) ;
#355 = FILL_AREA_STYLE ('',( #67 ) ) ;
#356 = CIRCLE ( 'NONE', #167, 6.000000000000000900 ) ;
#357 = FACE_OUTER_BOUND ( 'NONE', #345, .T. ) ;
#358 = ORIENTED_EDGE ( 'NONE', *, *, #131, .F. ) ;
#359 = UNCERTAINTY_MEASURE_WITH_UNIT (LENGTH_MEASURE( 1.000000000000000100E-005 ), #338, 'distance_accuracy_value', 'NONE');
#360 = ORIENTED_EDGE ( 'NONE', *, *, #15, .F. ) ;
#361 = EDGE_CURVE ( 'NONE', #275, #59, #36, .T. ) ;
#362 = ADVANCED_FACE ( 'NONE', ( #259 ), #371, .T. ) ;
#363 = DIRECTION ( 'NONE',  ( 1.000000000000000000, 0.0000000000000000000, 0.0000000000000000000 ) ) ;
#364 = DIRECTION ( 'NONE',  ( 1.000000000000000000, 0.0000000000000000000, 0.0000000000000000000 ) ) ;
#365 = DIRECTION ( 'NONE',  ( 1.000000000000000000, 0.0000000000000000000, 0.0000000000000000000 ) ) ;
#366 = LINE ( 'NONE', #270, #273 ) ;
#367 = ADVANCED_FACE ( 'NONE', ( #117 ), #3, .T. ) ;
#368 = CARTESIAN_POINT ( 'NONE',  ( 0.0000000000000000000, 0.0000000000000000000, -13.50000000000000000 ) ) ;
#369 = EDGE_CURVE ( 'NONE', #262, #289, #216, .T. ) ;
#370 = DIRECTION ( 'NONE',  ( 1.000000000000000000, 0.0000000000000000000, 0.0000000000000000000 ) ) ;
#371 = CONICAL_SURFACE ( 'NONE', #210, 6.000000000000000900, 0.4636476090008060900 ) ;
#372 = DIRECTION ( 'NONE',  ( -0.0000000000000000000, -0.0000000000000000000, 1.000000000000000000 ) ) ;
#373 = CONICAL_SURFACE ( 'NONE', #271, 6.000000000000000900, 0.4636476090008060900 ) ;
#374 = VERTEX_POINT ( 'NONE', #152 ) ;
#375 = DIRECTION ( 'NONE',  ( 0.0000000000000000000, 0.0000000000000000000, 1.000000000000000000 ) ) ;
#376 =( GEOMETRIC_REPRESENTATION_CONTEXT ( 3 ) GLOBAL_UNCERTAINTY_ASSIGNED_CONTEXT ( ( #359 ) ) GLOBAL_UNIT_ASSIGNED_CONTEXT ( ( #338, #35, #319 ) ) REPRESENTATION_CONTEXT ( 'NONE', 'WORKASPACE' ) );
ENDSEC;
END-ISO-10303-21;
