ISO-10303-21;
HEADER;
FILE_DESCRIPTION (( 'STEP AP214' ),
    '1' );
FILE_NAME ('22661~0.STEP',
    '2018-01-24T11:48:59',
    ( '' ),
    ( '' ),
    'SwSTEP 2.0',
    'SolidWorks 2016',
    '' );
FILE_SCHEMA (( 'AUTOMOTIVE_DESIGN' ));
ENDSEC;

DATA;
#1 = CLOSED_SHELL ( 'NONE', ( #267, #62, #35, #194, #332, #186, #91, #212, #165, #261, #303, #38 ) ) ;
#2 = DIRECTION ( 'NONE',  ( 3.511725016238584300E-016, 1.000000000000000000, 2.117738084960930200E-017 ) ) ;
#3 = APPLICATION_PROTOCOL_DEFINITION ( 'draft international standard', 'automotive_design', 1998, #155 ) ;
#4 = EDGE_CURVE ( 'NONE', #282, #22, #311, .T. ) ;
#5 = DIRECTION ( 'NONE',  ( 1.000000000000000000, 0.0000000000000000000, 0.0000000000000000000 ) ) ;
#6 = VECTOR ( 'NONE', #25, 1000.000000000000200 ) ;
#7 = LINE ( 'NONE', #277, #93 ) ;
#8 = CARTESIAN_POINT ( 'NONE',  ( -4.295542663681440200E-015, 19.99999999999999300, 2.999999999999981800 ) ) ;
#9 = COLOUR_RGB ( '',0.5019607843137254800, 0.5019607843137254800, 0.5019607843137254800 ) ;
#10 = CIRCLE ( 'NONE', #145, 1.249999999999990000 ) ;
#11 = ORIENTED_EDGE ( 'NONE', *, *, #334, .F. ) ;
#12 = AXIS2_PLACEMENT_3D ( 'NONE', #224, #286, #320 ) ;
#13 = CARTESIAN_POINT ( 'NONE',  ( 0.0000000000000000000, 19.99999999999999300, 0.0000000000000000000 ) ) ;
#14 =( LENGTH_UNIT ( ) NAMED_UNIT ( * ) SI_UNIT ( .MILLI., .METRE. ) );
#15 = COLOUR_RGB ( '',0.5019607843137254800, 0.5019607843137254800, 0.5019607843137254800 ) ;
#16 = CYLINDRICAL_SURFACE ( 'NONE', #175, 2.999999999999981800 ) ;
#17 = FILL_AREA_STYLE_COLOUR ( '', #15 ) ;
#18 = AXIS2_PLACEMENT_3D ( 'NONE', #131, #359, #162 ) ;
#19 = DIRECTION ( 'NONE',  ( 3.511725016238585300E-016, 1.000000000000000000, -2.117738084960849800E-017 ) ) ;
#20 = DIRECTION ( 'NONE',  ( -3.511725016238584300E-016, -1.000000000000000000, -2.117738084960930200E-017 ) ) ;
#21 = ORIENTED_EDGE ( 'NONE', *, *, #140, .F. ) ;
#22 = VERTEX_POINT ( 'NONE', #216 ) ;
#23 = COLOUR_RGB ( '',1.000000000000000000, 1.000000000000000000, 0.5019607843137254800 ) ;
#24 = FACE_OUTER_BOUND ( 'NONE', #191, .T. ) ;
#25 = DIRECTION ( 'NONE',  ( -6.498224889192258500E-017, 0.9656157585206700500, 0.2599734734478710800 ) ) ;
#26 = CONICAL_SURFACE ( 'NONE', #99, 1.249999999999992500, 0.2629947316809194700 ) ;
#27 = LINE ( 'NONE', #220, #354 ) ;
#28 = ORIENTED_EDGE ( 'NONE', *, *, #132, .F. ) ;
#29 = STYLED_ITEM ( 'NONE', ( #188 ), #303 ) ;
#30 = VECTOR ( 'NONE', #353, 1000.000000000000000 ) ;
#31 = ORIENTED_EDGE ( 'NONE', *, *, #202, .F. ) ;
#32 = PRODUCT_CONTEXT ( 'NONE', #155, 'mechanical' ) ;
#33 = APPLICATION_PROTOCOL_DEFINITION ( 'draft international standard', 'automotive_design', 1998, #234 ) ;
#34 = AXIS2_PLACEMENT_3D ( 'NONE', #81, #349, #288 ) ;
#35 = ADVANCED_FACE ( 'NONE', ( #24 ), #16, .T. ) ;
#36 = COLOUR_RGB ( '',1.000000000000000000, 1.000000000000000000, 0.5019607843137254800 ) ;
#37 = CARTESIAN_POINT ( 'NONE',  ( 0.0000000000000000000, 12.00000000000001100, 0.0000000000000000000 ) ) ;
#38 = ADVANCED_FACE ( 'NONE', ( #222 ), #89, .F. ) ;
#39 = CYLINDRICAL_SURFACE ( 'NONE', #90, 1.249999999999992500 ) ;
#40 = CARTESIAN_POINT ( 'NONE',  ( 0.0000000000000000000, 14.50000000000001600, 0.0000000000000000000 ) ) ;
#41 = DIRECTION ( 'NONE',  ( 3.511725016238584300E-016, 1.000000000000000000, 2.117738084960930200E-017 ) ) ;
#42 = CIRCLE ( 'NONE', #34, 1.249999999999989800 ) ;
#43 = EDGE_LOOP ( 'NONE', ( #299, #195 ) ) ;
#44 = AXIS2_PLACEMENT_3D ( 'NONE', #254, #348, #291 ) ;
#45 = EDGE_CURVE ( 'NONE', #163, #282, #10, .T. ) ;
#46 = CARTESIAN_POINT ( 'NONE',  ( 0.0000000000000000000, 19.99999999999999300, 0.0000000000000000000 ) ) ;
#47 = SURFACE_STYLE_USAGE ( .BOTH. , #176 ) ;
#48 = CARTESIAN_POINT ( 'NONE',  ( -2.380315442870564300E-015, 14.50000000000001600, 3.000000000000095000 ) ) ;
#49 = AXIS2_PLACEMENT_3D ( 'NONE', #316, #53, #257 ) ;
#50 = ORIENTED_EDGE ( 'NONE', *, *, #197, .F. ) ;
#51 = EDGE_LOOP ( 'NONE', ( #326, #107, #280, #223 ) ) ;
#52 = CARTESIAN_POINT ( 'NONE',  ( 7.312952003724932800E-015, 14.50000000000001600, -2.999999999999873000 ) ) ;
#53 = DIRECTION ( 'NONE',  ( 3.511725016238584300E-016, 1.000000000000000000, 2.117738084960930200E-017 ) ) ;
#54 = FILL_AREA_STYLE_COLOUR ( '', #9 ) ;
#55 = UNCERTAINTY_MEASURE_WITH_UNIT (LENGTH_MEASURE( 1.000000000000000100E-005 ), #14, 'distance_accuracy_value', 'NONE');
#56 = DIRECTION ( 'NONE',  ( 0.0000000000000000000, 0.0000000000000000000, 1.000000000000000000 ) ) ;
#57 = SURFACE_STYLE_FILL_AREA ( #87 ) ;
#58 = CYLINDRICAL_SURFACE ( 'NONE', #292, 2.999999999999981800 ) ;
#59 = LINE ( 'NONE', #361, #217 ) ;
#60 = ORIENTED_EDGE ( 'NONE', *, *, #368, .F. ) ;
#61 = CARTESIAN_POINT ( 'NONE',  ( 0.0000000000000000000, 12.00000000000001100, 0.0000000000000000000 ) ) ;
#62 = ADVANCED_FACE ( 'NONE', ( #266 ), #136, .F. ) ;
#63 = SURFACE_STYLE_USAGE ( .BOTH. , #166 ) ;
#64 = ORIENTED_EDGE ( 'NONE', *, *, #4, .F. ) ;
#65 = AXIS2_PLACEMENT_3D ( 'NONE', #46, #144, #117 ) ;
#66 = ORIENTED_EDGE ( 'NONE', *, *, #132, .T. ) ;
#67 = DIRECTION ( 'NONE',  ( 1.554312234475224100E-015, 0.0000000000000000000, -1.000000000000000000 ) ) ;
#68 = FILL_AREA_STYLE ('',( #17 ) ) ;
#69 = UNCERTAINTY_MEASURE_WITH_UNIT (LENGTH_MEASURE( 1.000000000000000100E-005 ), #270, 'distance_accuracy_value', 'NONE');
#70 = EDGE_CURVE ( 'NONE', #239, #256, #279, .T. ) ;
#71 = CARTESIAN_POINT ( 'NONE',  ( 0.0000000000000000000, 19.99999999999999300, 0.0000000000000000000 ) ) ;
#72 = CARTESIAN_POINT ( 'NONE',  ( -3.194499449696055300E-015, 8.000000000000007100, 1.250000000000111200 ) ) ;
#73 = LINE ( 'NONE', #273, #147 ) ;
#74 = AXIS2_PLACEMENT_3D ( 'NONE', #226, #150, #228 ) ;
#75 = CARTESIAN_POINT ( 'NONE',  ( 0.0000000000000000000, 19.99999999999999300, 0.0000000000000000000 ) ) ;
#76 = EDGE_LOOP ( 'NONE', ( #179, #247, #343, #142 ) ) ;
#77 = EDGE_LOOP ( 'NONE', ( #336, #289, #272, #268 ) ) ;
#78 = CARTESIAN_POINT ( 'NONE',  ( 0.0000000000000000000, 14.50000000000001600, 0.0000000000000000000 ) ) ;
#79 = PRESENTATION_LAYER_ASSIGNMENT (  '', '', ( #252 ) ) ;
#80 = CIRCLE ( 'NONE', #177, 2.999999999999981800 ) ;
#81 = CARTESIAN_POINT ( 'NONE',  ( 0.0000000000000000000, 19.99999999999999300, 0.0000000000000000000 ) ) ;
#82 = LINE ( 'NONE', #342, #104 ) ;
#83 = CARTESIAN_POINT ( 'NONE',  ( -1.942890293094018400E-015, 8.000000000000007100, 1.250000000000103500 ) ) ;
#84 = VECTOR ( 'NONE', #300, 1000.000000000000000 ) ;
#85 = ORIENTED_EDGE ( 'NONE', *, *, #92, .F. ) ;
#86 =( GEOMETRIC_REPRESENTATION_CONTEXT ( 3 ) GLOBAL_UNCERTAINTY_ASSIGNED_CONTEXT ( ( #143 ) ) GLOBAL_UNIT_ASSIGNED_CONTEXT ( ( #210, #294, #351 ) ) REPRESENTATION_CONTEXT ( 'NONE', 'WORKASPACE' ) );
#87 = FILL_AREA_STYLE ('',( #54 ) ) ;
#88 = FACE_OUTER_BOUND ( 'NONE', #347, .T. ) ;
#89 = CONICAL_SURFACE ( 'NONE', #161, 1.249999999999990000, 1.029744258676653200 ) ;
#90 = AXIS2_PLACEMENT_3D ( 'NONE', #207, #319, #160 ) ;
#91 = ADVANCED_FACE ( 'NONE', ( #366 ), #330, .F. ) ;
#92 = EDGE_CURVE ( 'NONE', #218, #94, #171, .T. ) ;
#93 = VECTOR ( 'NONE', #102, 1000.000000000000200 ) ;
#94 = VERTEX_POINT ( 'NONE', #246 ) ;
#95 = DIRECTION ( 'NONE',  ( -1.554312234475224300E-015, 0.0000000000000000000, 1.000000000000000000 ) ) ;
#96 = DIRECTION ( 'NONE',  ( -1.554312234475224100E-015, 0.0000000000000000000, 1.000000000000000000 ) ) ;
#97 = PRESENTATION_STYLE_ASSIGNMENT (( #233 ) ) ;
#98 = CIRCLE ( 'NONE', #49, 1.249999999999992500 ) ;
#99 = AXIS2_PLACEMENT_3D ( 'NONE', #243, #41, #137 ) ;
#100 = ORIENTED_EDGE ( 'NONE', *, *, #108, .T. ) ;
#101 =( NAMED_UNIT ( * ) PLANE_ANGLE_UNIT ( ) SI_UNIT ( $, .RADIAN. ) );
#102 = DIRECTION ( 'NONE',  ( 7.750152201582845400E-016, 0.9656157585206700500, -0.2599734734478710800 ) ) ;
#103 = CIRCLE ( 'NONE', #269, 1.249999999999992500 ) ;
#104 = VECTOR ( 'NONE', #20, 1000.000000000000000 ) ;
#105 = ORIENTED_EDGE ( 'NONE', *, *, #352, .T. ) ;
#106 = CIRCLE ( 'NONE', #130, 2.999999999999981800 ) ;
#107 = ORIENTED_EDGE ( 'NONE', *, *, #242, .T. ) ;
#108 = EDGE_CURVE ( 'NONE', #185, #298, #82, .T. ) ;
#109 = DIRECTION ( 'NONE',  ( -1.554312234475224100E-015, 0.0000000000000000000, 1.000000000000000000 ) ) ;
#110 = CARTESIAN_POINT ( 'NONE',  ( 5.382002865985866900E-016, 8.000000000000007100, -1.249999999999889200 ) ) ;
#111 = STYLED_ITEM ( 'NONE', ( #315 ), #170 ) ;
#112 = CIRCLE ( 'NONE', #65, 2.999999999999981800 ) ;
#113 = ORIENTED_EDGE ( 'NONE', *, *, #70, .T. ) ;
#114 = VERTEX_POINT ( 'NONE', #305 ) ;
#115 = EDGE_CURVE ( 'NONE', #163, #114, #27, .T. ) ;
#116 = CARTESIAN_POINT ( 'NONE',  ( 0.0000000000000000000, 19.99999999999999300, 0.0000000000000000000 ) ) ;
#117 = DIRECTION ( 'NONE',  ( -1.554312234475224100E-015, 0.0000000000000000000, 1.000000000000000000 ) ) ;
#118 = CARTESIAN_POINT ( 'NONE',  ( 4.662936703425644100E-015, 19.99999999999999300, -2.999999999999981800 ) ) ;
#119 = FACE_OUTER_BOUND ( 'NONE', #372, .T. ) ;
#120 = ORIENTED_EDGE ( 'NONE', *, *, #334, .T. ) ;
#121 = DIRECTION ( 'NONE',  ( 3.511725016238584300E-016, 1.000000000000000000, 2.117738084960930200E-017 ) ) ;
#122 =( NAMED_UNIT ( * ) SI_UNIT ( $, .STERADIAN. ) SOLID_ANGLE_UNIT ( ) );
#123 = EDGE_CURVE ( 'NONE', #218, #302, #7, .T. ) ;
#124 = CONICAL_SURFACE ( 'NONE', #365, 1.249999999999992500, 0.2629947316809194700 ) ;
#125 = ORIENTED_EDGE ( 'NONE', *, *, #181, .T. ) ;
#126 = ORIENTED_EDGE ( 'NONE', *, *, #172, .T. ) ;
#127 = DIRECTION ( 'NONE',  ( 3.511725016238584300E-016, 1.000000000000000000, 2.117738084960930200E-017 ) ) ;
#128 = FILL_AREA_STYLE_COLOUR ( '', #36 ) ;
#129 = DIRECTION ( 'NONE',  ( -1.554312234475224300E-015, 0.0000000000000000000, 1.000000000000000000 ) ) ;
#130 = AXIS2_PLACEMENT_3D ( 'NONE', #40, #134, #339 ) ;
#131 = CARTESIAN_POINT ( 'NONE',  ( 0.0000000000000000000, 19.99999999999999300, 0.0000000000000000000 ) ) ;
#132 = EDGE_CURVE ( 'NONE', #295, #163, #73, .T. ) ;
#133 = DIRECTION ( 'NONE',  ( -1.554312234475224300E-015, 0.0000000000000000000, 1.000000000000000000 ) ) ;
#134 = DIRECTION ( 'NONE',  ( 3.511725016238584300E-016, 1.000000000000000000, 2.117738084960930200E-017 ) ) ;
#135 = MECHANICAL_DESIGN_GEOMETRIC_PRESENTATION_REPRESENTATION (  '', ( #111 ), #275 ) ;
#136 = CYLINDRICAL_SURFACE ( 'NONE', #18, 1.249999999999989800 ) ;
#137 = DIRECTION ( 'NONE',  ( -1.554312234475224100E-015, 0.0000000000000000000, 1.000000000000000000 ) ) ;
#138 = ORIENTED_EDGE ( 'NONE', *, *, #313, .F. ) ;
#139 = DIRECTION ( 'NONE',  ( 1.554312234475224100E-015, 0.0000000000000000000, -1.000000000000000000 ) ) ;
#140 = EDGE_CURVE ( 'NONE', #295, #282, #59, .T. ) ;
#141 = FACE_OUTER_BOUND ( 'NONE', #364, .T. ) ;
#142 = ORIENTED_EDGE ( 'NONE', *, *, #197, .T. ) ;
#143 = UNCERTAINTY_MEASURE_WITH_UNIT (LENGTH_MEASURE( 1.000000000000000100E-005 ), #210, 'distance_accuracy_value', 'NONE');
#144 = DIRECTION ( 'NONE',  ( 3.511725016238584300E-016, 1.000000000000000000, 2.117738084960930200E-017 ) ) ;
#145 = AXIS2_PLACEMENT_3D ( 'NONE', #37, #127, #95 ) ;
#146 = CARTESIAN_POINT ( 'NONE',  ( -5.261267043147078700E-015, 19.99999999999999300, 3.000000000000000400 ) ) ;
#147 = VECTOR ( 'NONE', #200, 1000.000000000000100 ) ;
#148 = PRODUCT_DEFINITION_CONTEXT ( 'detailed design', #234, 'design' ) ;
#149 = DIRECTION ( 'NONE',  ( 3.511725016238584300E-016, 1.000000000000000000, 2.117738084960930200E-017 ) ) ;
#150 = DIRECTION ( 'NONE',  ( 3.511725016238584300E-016, 1.000000000000000000, 2.117738084960930200E-017 ) ) ;
#151 = CARTESIAN_POINT ( 'NONE',  ( 3.697212323960060800E-015, 19.99999999999999300, -3.000000000000000400 ) ) ;
#152 = SURFACE_STYLE_FILL_AREA ( #333 ) ;
#153 = EDGE_LOOP ( 'NONE', ( #232, #164 ) ) ;
#154 = MECHANICAL_DESIGN_GEOMETRIC_PRESENTATION_REPRESENTATION (  '', ( #29 ), #208 ) ;
#155 = APPLICATION_CONTEXT ( 'automotive_design' ) ;
#156 = CARTESIAN_POINT ( 'NONE',  ( 0.0000000000000000000, 19.99999999999999300, 0.0000000000000000000 ) ) ;
#157 = EDGE_CURVE ( 'NONE', #185, #218, #103, .T. ) ;
#158 = CARTESIAN_POINT ( 'NONE',  ( 0.0000000000000000000, 12.00000000000001100, 0.0000000000000000000 ) ) ;
#159 = VECTOR ( 'NONE', #173, 1000.000000000000000 ) ;
#160 = DIRECTION ( 'NONE',  ( 1.554312234475224100E-015, 0.0000000000000000000, -1.000000000000000000 ) ) ;
#161 = AXIS2_PLACEMENT_3D ( 'NONE', #61, #187, #129 ) ;
#162 = DIRECTION ( 'NONE',  ( -1.554312234475224300E-015, 0.0000000000000000000, 1.000000000000000000 ) ) ;
#163 = VERTEX_POINT ( 'NONE', #310 ) ;
#164 = ORIENTED_EDGE ( 'NONE', *, *, #368, .T. ) ;
#165 = ADVANCED_FACE ( 'NONE', ( #141 ), #58, .T. ) ;
#166 = SURFACE_SIDE_STYLE ('',( #152 ) ) ;
#167 = DIRECTION ( 'NONE',  ( 3.511725016238584300E-016, 1.000000000000000000, 2.117738084960930200E-017 ) ) ;
#168 = AXIS2_PLACEMENT_3D ( 'NONE', #116, #206, #229 ) ;
#169 = CIRCLE ( 'NONE', #304, 1.249999999999992500 ) ;
#170 = MANIFOLD_SOLID_BREP ( 'M3 Gewindebohrung1', #1 ) ;
#171 = LINE ( 'NONE', #337, #159 ) ;
#172 = EDGE_CURVE ( 'NONE', #114, #22, #363, .T. ) ;
#173 = DIRECTION ( 'NONE',  ( -3.511725016238584300E-016, -1.000000000000000000, -2.117738084960930200E-017 ) ) ;
#174 = ORIENTED_EDGE ( 'NONE', *, *, #70, .F. ) ;
#175 = AXIS2_PLACEMENT_3D ( 'NONE', #13, #265, #67 ) ;
#176 = SURFACE_SIDE_STYLE ('',( #201 ) ) ;
#177 = AXIS2_PLACEMENT_3D ( 'NONE', #156, #183, #259 ) ;
#178 = CARTESIAN_POINT ( 'NONE',  ( -3.194499449695913300E-015, -2.647172606201051000E-017, 1.250000000000000200 ) ) ;
#179 = ORIENTED_EDGE ( 'NONE', *, *, #108, .F. ) ;
#180 = DIRECTION ( 'NONE',  ( -1.554312234475224100E-015, 0.0000000000000000000, 1.000000000000000000 ) ) ;
#181 = EDGE_CURVE ( 'NONE', #302, #256, #106, .T. ) ;
#182 = CARTESIAN_POINT ( 'NONE',  ( 0.0000000000000000000, 0.0000000000000000000, 0.0000000000000000000 ) ) ;
#183 = DIRECTION ( 'NONE',  ( 3.511725016238584300E-016, 1.000000000000000000, 2.117738084960930200E-017 ) ) ;
#184 = FACE_OUTER_BOUND ( 'NONE', #211, .T. ) ;
#185 = VERTEX_POINT ( 'NONE', #72 ) ;
#186 = ADVANCED_FACE ( 'NONE', ( #370 ), #235, .T. ) ;
#187 = DIRECTION ( 'NONE',  ( 3.511725016238584300E-016, 1.000000000000000000, 2.117738084960930200E-017 ) ) ;
#188 = PRESENTATION_STYLE_ASSIGNMENT (( #47 ) ) ;
#189 =( NAMED_UNIT ( * ) PLANE_ANGLE_UNIT ( ) SI_UNIT ( $, .RADIAN. ) );
#190 = VECTOR ( 'NONE', #193, 1000.000000000000000 ) ;
#191 = EDGE_LOOP ( 'NONE', ( #60, #113, #322, #205 ) ) ;
#192 = UNCERTAINTY_MEASURE_WITH_UNIT (LENGTH_MEASURE( 1.000000000000000100E-005 ), #209, 'distance_accuracy_value', 'NONE');
#193 = DIRECTION ( 'NONE',  ( -3.511725016238584300E-016, -1.000000000000000000, -2.117738084960930200E-017 ) ) ;
#194 = ADVANCED_FACE ( 'NONE', ( #184 ), #26, .T. ) ;
#195 = ORIENTED_EDGE ( 'NONE', *, *, #285, .F. ) ;
#196 = SURFACE_STYLE_USAGE ( .BOTH. , #340 ) ;
#197 = EDGE_CURVE ( 'NONE', #94, #298, #98, .T. ) ;
#198 = DIRECTION ( 'NONE',  ( 1.618145550784955900E-015, 0.5150380749100577100, -0.8571673007021102200 ) ) ;
#199 = STYLED_ITEM ( 'NONE', ( #97 ), #357 ) ;
#200 = DIRECTION ( 'NONE',  ( -1.151438413275692000E-015, 0.5150380749100577100, 0.8571673007021102200 ) ) ;
#201 = SURFACE_STYLE_FILL_AREA ( #344 ) ;
#202 = EDGE_CURVE ( 'NONE', #185, #256, #260, .T. ) ;
#203 = CIRCLE ( 'NONE', #74, 1.249999999999992500 ) ;
#204 = ORIENTED_EDGE ( 'NONE', *, *, #115, .T. ) ;
#205 = ORIENTED_EDGE ( 'NONE', *, *, #352, .F. ) ;
#206 = DIRECTION ( 'NONE',  ( 3.511725016238585300E-016, 1.000000000000000000, -2.117738084960849800E-017 ) ) ;
#207 = CARTESIAN_POINT ( 'NONE',  ( 0.0000000000000000000, 8.000000000000007100, 1.110223024625156500E-013 ) ) ;
#208 =( GEOMETRIC_REPRESENTATION_CONTEXT ( 3 ) GLOBAL_UNCERTAINTY_ASSIGNED_CONTEXT ( ( #264 ) ) GLOBAL_UNIT_ASSIGNED_CONTEXT ( ( #251, #371, #373 ) ) REPRESENTATION_CONTEXT ( 'NONE', 'WORKASPACE' ) );
#209 =( LENGTH_UNIT ( ) NAMED_UNIT ( * ) SI_UNIT ( .MILLI., .METRE. ) );
#210 =( LENGTH_UNIT ( ) NAMED_UNIT ( * ) SI_UNIT ( .MILLI., .METRE. ) );
#211 = EDGE_LOOP ( 'NONE', ( #374, #250, #329, #31 ) ) ;
#212 = ADVANCED_FACE ( 'NONE', ( #327 ), #124, .T. ) ;
#213 = AXIS2_PLACEMENT_3D ( 'NONE', #158, #2, #325 ) ;
#214 =( NAMED_UNIT ( * ) SI_UNIT ( $, .STERADIAN. ) SOLID_ANGLE_UNIT ( ) );
#215 =( GEOMETRIC_REPRESENTATION_CONTEXT ( 3 ) GLOBAL_UNCERTAINTY_ASSIGNED_CONTEXT ( ( #69 ) ) GLOBAL_UNIT_ASSIGNED_CONTEXT ( ( #270, #189, #214 ) ) REPRESENTATION_CONTEXT ( 'NONE', 'WORKASPACE' ) );
#216 = CARTESIAN_POINT ( 'NONE',  ( 6.912811364920059200E-016, 19.99999999999999300, -1.249999999999997600 ) ) ;
#217 = VECTOR ( 'NONE', #198, 1000.000000000000100 ) ;
#218 = VERTEX_POINT ( 'NONE', #110 ) ;
#219 = CARTESIAN_POINT ( 'NONE',  ( 0.0000000000000000000, 8.000000000000007100, 1.110223024625156500E-013 ) ) ;
#220 = CARTESIAN_POINT ( 'NONE',  ( -1.942890293094014500E-015, 19.99999999999999300, 1.249999999999989800 ) ) ;
#221 = DIRECTION ( 'NONE',  ( -3.511725016238584300E-016, -1.000000000000000000, -2.117738084960930200E-017 ) ) ;
#222 = FACE_OUTER_BOUND ( 'NONE', #346, .T. ) ;
#223 = ORIENTED_EDGE ( 'NONE', *, *, #181, .F. ) ;
#224 = CARTESIAN_POINT ( 'NONE',  ( 0.0000000000000000000, 12.00000000000001100, 0.0000000000000000000 ) ) ;
#225 = EDGE_CURVE ( 'NONE', #256, #302, #287, .T. ) ;
#226 = CARTESIAN_POINT ( 'NONE',  ( 0.0000000000000000000, 8.000000000000007100, 1.110223024625156500E-013 ) ) ;
#227 = FACE_OUTER_BOUND ( 'NONE', #153, .T. ) ;
#228 = DIRECTION ( 'NONE',  ( -1.554312234475224100E-015, 0.0000000000000000000, 1.000000000000000000 ) ) ;
#229 = DIRECTION ( 'NONE',  ( -1.554312234475224300E-015, 2.117738084960904400E-017, 1.000000000000000000 ) ) ;
#230 = PRESENTATION_LAYER_ASSIGNMENT (  '', '', ( #199 ) ) ;
#231 = SHAPE_DEFINITION_REPRESENTATION ( #360, #357 ) ;
#232 = ORIENTED_EDGE ( 'NONE', *, *, #313, .T. ) ;
#233 = SURFACE_STYLE_USAGE ( .BOTH. , #263 ) ;
#234 = APPLICATION_CONTEXT ( 'automotive_design' ) ;
#235 = CYLINDRICAL_SURFACE ( 'NONE', #236, 1.249999999999992500 ) ;
#236 = AXIS2_PLACEMENT_3D ( 'NONE', #276, #221, #362 ) ;
#237 = PRESENTATION_STYLE_ASSIGNMENT (( #63 ) ) ;
#238 = ORIENTED_EDGE ( 'NONE', *, *, #140, .T. ) ;
#239 = VERTEX_POINT ( 'NONE', #146 ) ;
#240 = AXIS2_PLACEMENT_3D ( 'NONE', #182, #56, #5 ) ;
#241 = CARTESIAN_POINT ( 'NONE',  ( 0.0000000000000000000, 0.0000000000000000000, 0.0000000000000000000 ) ) ;
#242 = EDGE_CURVE ( 'NONE', #218, #185, #203, .T. ) ;
#243 = CARTESIAN_POINT ( 'NONE',  ( 0.0000000000000000000, 8.000000000000007100, 1.110223024625156500E-013 ) ) ;
#244 = DIRECTION ( 'NONE',  ( -1.554312234475224300E-015, 2.117738084960904400E-017, 1.000000000000000000 ) ) ;
#245 = MECHANICAL_DESIGN_GEOMETRIC_PRESENTATION_REPRESENTATION (  '', ( #199 ), #86 ) ;
#246 = CARTESIAN_POINT ( 'NONE',  ( 5.382002865986344100E-016, 2.647172606201144100E-017, -1.250000000000000200 ) ) ;
#247 = ORIENTED_EDGE ( 'NONE', *, *, #242, .F. ) ;
#248 = AXIS2_PLACEMENT_3D ( 'NONE', #241, #19, #244 ) ;
#249 = DIRECTION ( 'NONE',  ( 3.511725016238584300E-016, 1.000000000000000000, 2.117738084960930200E-017 ) ) ;
#250 = ORIENTED_EDGE ( 'NONE', *, *, #123, .T. ) ;
#251 =( LENGTH_UNIT ( ) NAMED_UNIT ( * ) SI_UNIT ( .MILLI., .METRE. ) );
#252 = STYLED_ITEM ( 'NONE', ( #237 ), #62 ) ;
#253 = PLANE ( 'NONE',  #168 ) ;
#254 = CARTESIAN_POINT ( 'NONE',  ( 0.0000000000000000000, 19.99999999999999300, 0.0000000000000000000 ) ) ;
#255 = CYLINDRICAL_SURFACE ( 'NONE', #44, 1.249999999999989800 ) ;
#256 = VERTEX_POINT ( 'NONE', #48 ) ;
#257 = DIRECTION ( 'NONE',  ( -1.554312234475224100E-015, 2.117738084960904400E-017, 1.000000000000000000 ) ) ;
#258 = PRODUCT_DEFINITION ( 'UNKNOWN', '', #283, #148 ) ;
#259 = DIRECTION ( 'NONE',  ( -1.554312234475224100E-015, 0.0000000000000000000, 1.000000000000000000 ) ) ;
#260 = LINE ( 'NONE', #83, #6 ) ;
#261 = ADVANCED_FACE ( 'NONE', ( #307, #227 ), #253, .T. ) ;
#262 = PRODUCT ( '22661~0', '22661~0', '', ( #32 ) ) ;
#263 = SURFACE_SIDE_STYLE ('',( #57 ) ) ;
#264 = UNCERTAINTY_MEASURE_WITH_UNIT (LENGTH_MEASURE( 1.000000000000000100E-005 ), #251, 'distance_accuracy_value', 'NONE');
#265 = DIRECTION ( 'NONE',  ( -3.511725016238584300E-016, -1.000000000000000000, -2.117738084960930200E-017 ) ) ;
#266 = FACE_OUTER_BOUND ( 'NONE', #77, .T. ) ;
#267 = ADVANCED_FACE ( 'NONE', ( #119 ), #345, .F. ) ;
#268 = ORIENTED_EDGE ( 'NONE', *, *, #115, .F. ) ;
#269 = AXIS2_PLACEMENT_3D ( 'NONE', #219, #167, #96 ) ;
#270 =( LENGTH_UNIT ( ) NAMED_UNIT ( * ) SI_UNIT ( .MILLI., .METRE. ) );
#271 = FACE_OUTER_BOUND ( 'NONE', #290, .T. ) ;
#272 = ORIENTED_EDGE ( 'NONE', *, *, #285, .T. ) ;
#273 = CARTESIAN_POINT ( 'NONE',  ( -1.942890293094014900E-015, 12.00000000000001100, 1.249999999999990000 ) ) ;
#274 = DIRECTION ( 'NONE',  ( 3.511725016238584300E-016, 1.000000000000000000, 2.117738084960930200E-017 ) ) ;
#275 =( GEOMETRIC_REPRESENTATION_CONTEXT ( 3 ) GLOBAL_UNCERTAINTY_ASSIGNED_CONTEXT ( ( #55 ) ) GLOBAL_UNIT_ASSIGNED_CONTEXT ( ( #14, #101, #306 ) ) REPRESENTATION_CONTEXT ( 'NONE', 'WORKASPACE' ) );
#276 = CARTESIAN_POINT ( 'NONE',  ( 0.0000000000000000000, 8.000000000000007100, 1.110223024625156500E-013 ) ) ;
#277 = CARTESIAN_POINT ( 'NONE',  ( 2.095971142987437000E-015, 8.000000000000007100, -1.249999999999881400 ) ) ;
#278 = CIRCLE ( 'NONE', #213, 1.249999999999990000 ) ;
#279 = LINE ( 'NONE', #8, #190 ) ;
#280 = ORIENTED_EDGE ( 'NONE', *, *, #202, .T. ) ;
#281 = DIRECTION ( 'NONE',  ( -3.511725016238584300E-016, -1.000000000000000000, -2.117738084960930200E-017 ) ) ;
#282 = VERTEX_POINT ( 'NONE', #284 ) ;
#283 = PRODUCT_DEFINITION_FORMATION_WITH_SPECIFIED_SOURCE ( 'ANY', '', #262, .NOT_KNOWN. ) ;
#284 = CARTESIAN_POINT ( 'NONE',  ( 6.912811364920060100E-016, 12.00000000000001100, -1.249999999999997800 ) ) ;
#285 = EDGE_CURVE ( 'NONE', #22, #114, #42, .T. ) ;
#286 = DIRECTION ( 'NONE',  ( 3.511725016238584300E-016, 1.000000000000000000, 2.117738084960930200E-017 ) ) ;
#287 = CIRCLE ( 'NONE', #293, 2.999999999999981800 ) ;
#288 = DIRECTION ( 'NONE',  ( -1.554312234475224300E-015, 0.0000000000000000000, 1.000000000000000000 ) ) ;
#289 = ORIENTED_EDGE ( 'NONE', *, *, #4, .T. ) ;
#290 = EDGE_LOOP ( 'NONE', ( #64, #355, #204, #126 ) ) ;
#291 = DIRECTION ( 'NONE',  ( -1.554312234475224300E-015, 0.0000000000000000000, 1.000000000000000000 ) ) ;
#292 = AXIS2_PLACEMENT_3D ( 'NONE', #75, #281, #139 ) ;
#293 = AXIS2_PLACEMENT_3D ( 'NONE', #78, #149, #109 ) ;
#294 =( NAMED_UNIT ( * ) PLANE_ANGLE_UNIT ( ) SI_UNIT ( $, .RADIAN. ) );
#295 = VERTEX_POINT ( 'NONE', #318 ) ;
#296 = CARTESIAN_POINT ( 'NONE',  ( 0.0000000000000000000, 0.0000000000000000000, 0.0000000000000000000 ) ) ;
#297 =( NAMED_UNIT ( * ) PLANE_ANGLE_UNIT ( ) SI_UNIT ( $, .RADIAN. ) );
#298 = VERTEX_POINT ( 'NONE', #178 ) ;
#299 = ORIENTED_EDGE ( 'NONE', *, *, #172, .F. ) ;
#300 = DIRECTION ( 'NONE',  ( 3.511725016238584300E-016, 1.000000000000000000, 2.117738084960930200E-017 ) ) ;
#301 = ORIENTED_EDGE ( 'NONE', *, *, #350, .T. ) ;
#302 = VERTEX_POINT ( 'NONE', #52 ) ;
#303 = ADVANCED_FACE ( 'NONE', ( #271 ), #255, .F. ) ;
#304 = AXIS2_PLACEMENT_3D ( 'NONE', #296, #121, #323 ) ;
#305 = CARTESIAN_POINT ( 'NONE',  ( -1.942890293094014500E-015, 19.99999999999999300, 1.249999999999989800 ) ) ;
#306 =( NAMED_UNIT ( * ) SI_UNIT ( $, .STERADIAN. ) SOLID_ANGLE_UNIT ( ) );
#307 = FACE_BOUND ( 'NONE', #43, .T. ) ;
#308 = DIRECTION ( 'NONE',  ( 3.511725016238584300E-016, 1.000000000000000000, 2.117738084960930200E-017 ) ) ;
#309 = AXIS2_PLACEMENT_3D ( 'NONE', #71, #274, #133 ) ;
#310 = CARTESIAN_POINT ( 'NONE',  ( -1.942890293094014900E-015, 12.00000000000001100, 1.249999999999990000 ) ) ;
#311 = LINE ( 'NONE', #356, #84 ) ;
#312 = MECHANICAL_DESIGN_GEOMETRIC_PRESENTATION_REPRESENTATION (  '', ( #252 ), #215 ) ;
#313 = EDGE_CURVE ( 'NONE', #321, #239, #112, .T. ) ;
#314 = FILL_AREA_STYLE_COLOUR ( '', #23 ) ;
#315 = PRESENTATION_STYLE_ASSIGNMENT (( #196 ) ) ;
#316 = CARTESIAN_POINT ( 'NONE',  ( 0.0000000000000000000, 0.0000000000000000000, 0.0000000000000000000 ) ) ;
#317 = PRESENTATION_LAYER_ASSIGNMENT (  '', '', ( #29 ) ) ;
#318 = CARTESIAN_POINT ( 'NONE',  ( 0.0000000000000000000, 11.24892422621553900, 0.0000000000000000000 ) ) ;
#319 = DIRECTION ( 'NONE',  ( -3.511725016238584300E-016, -1.000000000000000000, -2.117738084960930200E-017 ) ) ;
#320 = DIRECTION ( 'NONE',  ( -1.554312234475224300E-015, 0.0000000000000000000, 1.000000000000000000 ) ) ;
#321 = VERTEX_POINT ( 'NONE', #151 ) ;
#322 = ORIENTED_EDGE ( 'NONE', *, *, #225, .T. ) ;
#323 = DIRECTION ( 'NONE',  ( -1.554312234475224100E-015, 2.117738084960904400E-017, 1.000000000000000000 ) ) ;
#324 = PRODUCT_RELATED_PRODUCT_CATEGORY ( 'part', '', ( #262 ) ) ;
#325 = DIRECTION ( 'NONE',  ( -1.554312234475224300E-015, 0.0000000000000000000, 1.000000000000000000 ) ) ;
#326 = ORIENTED_EDGE ( 'NONE', *, *, #123, .F. ) ;
#327 = FACE_OUTER_BOUND ( 'NONE', #51, .T. ) ;
#328 = ORIENTED_EDGE ( 'NONE', *, *, #157, .F. ) ;
#329 = ORIENTED_EDGE ( 'NONE', *, *, #225, .F. ) ;
#330 = PLANE ( 'NONE',  #248 ) ;
#331 = PRESENTATION_LAYER_ASSIGNMENT (  '', '', ( #111 ) ) ;
#332 = ADVANCED_FACE ( 'NONE', ( #88 ), #39, .T. ) ;
#333 = FILL_AREA_STYLE ('',( #128 ) ) ;
#334 = EDGE_CURVE ( 'NONE', #298, #94, #169, .T. ) ;
#335 = SURFACE_STYLE_FILL_AREA ( #68 ) ;
#336 = ORIENTED_EDGE ( 'NONE', *, *, #350, .F. ) ;
#337 = CARTESIAN_POINT ( 'NONE',  ( 1.942890293094018400E-015, 8.000000000000007100, -1.249999999999881400 ) ) ;
#338 =( GEOMETRIC_REPRESENTATION_CONTEXT ( 3 ) GLOBAL_UNCERTAINTY_ASSIGNED_CONTEXT ( ( #192 ) ) GLOBAL_UNIT_ASSIGNED_CONTEXT ( ( #209, #297, #122 ) ) REPRESENTATION_CONTEXT ( 'NONE', 'WORKASPACE' ) );
#339 = DIRECTION ( 'NONE',  ( -1.554312234475224100E-015, 0.0000000000000000000, 1.000000000000000000 ) ) ;
#340 = SURFACE_SIDE_STYLE ('',( #335 ) ) ;
#341 = LINE ( 'NONE', #118, #30 ) ;
#342 = CARTESIAN_POINT ( 'NONE',  ( -1.789809443200600300E-015, 8.000000000000007100, 1.250000000000103500 ) ) ;
#343 = ORIENTED_EDGE ( 'NONE', *, *, #92, .T. ) ;
#344 = FILL_AREA_STYLE ('',( #314 ) ) ;
#345 = CONICAL_SURFACE ( 'NONE', #12, 1.249999999999990000, 1.029744258676653200 ) ;
#346 = EDGE_LOOP ( 'NONE', ( #21, #66, #367 ) ) ;
#347 = EDGE_LOOP ( 'NONE', ( #328, #100, #120, #85 ) ) ;
#348 = DIRECTION ( 'NONE',  ( 3.511725016238584300E-016, 1.000000000000000000, 2.117738084960930200E-017 ) ) ;
#349 = DIRECTION ( 'NONE',  ( 3.511725016238584300E-016, 1.000000000000000000, 2.117738084960930200E-017 ) ) ;
#350 = EDGE_CURVE ( 'NONE', #282, #163, #278, .T. ) ;
#351 =( NAMED_UNIT ( * ) SI_UNIT ( $, .STERADIAN. ) SOLID_ANGLE_UNIT ( ) );
#352 = EDGE_CURVE ( 'NONE', #321, #302, #341, .T. ) ;
#353 = DIRECTION ( 'NONE',  ( -3.511725016238584300E-016, -1.000000000000000000, -2.117738084960930200E-017 ) ) ;
#354 = VECTOR ( 'NONE', #308, 1000.000000000000000 ) ;
#355 = ORIENTED_EDGE ( 'NONE', *, *, #45, .F. ) ;
#356 = CARTESIAN_POINT ( 'NONE',  ( 2.095971142987432200E-015, 19.99999999999999300, -1.249999999999989800 ) ) ;
#357 = ADVANCED_BREP_SHAPE_REPRESENTATION ( '22661~0', ( #170, #240 ), #338 ) ;
#358 = EDGE_LOOP ( 'NONE', ( #50, #11 ) ) ;
#359 = DIRECTION ( 'NONE',  ( 3.511725016238584300E-016, 1.000000000000000000, 2.117738084960930200E-017 ) ) ;
#360 = PRODUCT_DEFINITION_SHAPE ( 'NONE', 'NONE',  #258 ) ;
#361 = CARTESIAN_POINT ( 'NONE',  ( 2.095971142987432600E-015, 12.00000000000001100, -1.249999999999990000 ) ) ;
#362 = DIRECTION ( 'NONE',  ( 1.554312234475224100E-015, 0.0000000000000000000, -1.000000000000000000 ) ) ;
#363 = CIRCLE ( 'NONE', #309, 1.249999999999989800 ) ;
#364 = EDGE_LOOP ( 'NONE', ( #174, #138, #105, #125 ) ) ;
#365 = AXIS2_PLACEMENT_3D ( 'NONE', #369, #249, #180 ) ;
#366 = FACE_OUTER_BOUND ( 'NONE', #358, .T. ) ;
#367 = ORIENTED_EDGE ( 'NONE', *, *, #45, .T. ) ;
#368 = EDGE_CURVE ( 'NONE', #239, #321, #80, .T. ) ;
#369 = CARTESIAN_POINT ( 'NONE',  ( 0.0000000000000000000, 8.000000000000007100, 1.110223024625156500E-013 ) ) ;
#370 = FACE_OUTER_BOUND ( 'NONE', #76, .T. ) ;
#371 =( NAMED_UNIT ( * ) PLANE_ANGLE_UNIT ( ) SI_UNIT ( $, .RADIAN. ) );
#372 = EDGE_LOOP ( 'NONE', ( #28, #238, #301 ) ) ;
#373 =( NAMED_UNIT ( * ) SI_UNIT ( $, .STERADIAN. ) SOLID_ANGLE_UNIT ( ) );
#374 = ORIENTED_EDGE ( 'NONE', *, *, #157, .T. ) ;
ENDSEC;
END-ISO-10303-21;
