ISO-10303-21;
HEADER;
FILE_DESCRIPTION (( 'STEP AP214' ),
    '1' );
FILE_NAME ('20616~0.STEP',
    '2017-07-04T13:51:01',
    ( '' ),
    ( '' ),
    'SwSTEP 2.0',
    'SolidWorks 2016',
    '' );
FILE_SCHEMA (( 'AUTOMOTIVE_DESIGN' ));
ENDSEC;

DATA;
#1 = DIRECTION ( 'NONE',  ( 0.0000000000000000000, 0.0000000000000000000, 1.000000000000000000 ) ) ;
#2 = CARTESIAN_POINT ( 'NONE',  ( 0.0000000000000000000, 11.00000000000000000, 0.0000000000000000000 ) ) ;
#3 = FACE_OUTER_BOUND ( 'NONE', #375, .T. ) ;
#4 = VERTEX_POINT ( 'NONE', #114 ) ;
#5 = CARTESIAN_POINT ( 'NONE',  ( 0.0000000000000000000, 11.00000000000000000, 0.0000000000000000000 ) ) ;
#6 = DIRECTION ( 'NONE',  ( -0.0000000000000000000, -1.000000000000000000, -0.0000000000000000000 ) ) ;
#7 = PRODUCT_DEFINITION ( 'UNKNOWN', '', #379, #323 ) ;
#8 = ORIENTED_EDGE ( 'NONE', *, *, #335, .T. ) ;
#9 = FILL_AREA_STYLE_COLOUR ( '', #239 ) ;
#10 = EDGE_LOOP ( 'NONE', ( #372, #327 ) ) ;
#11 = DIRECTION ( 'NONE',  ( 0.0000000000000000000, -0.0000000000000000000, 1.000000000000000000 ) ) ;
#12 = AXIS2_PLACEMENT_3D ( 'NONE', #404, #54, #188 ) ;
#13 = PRESENTATION_LAYER_ASSIGNMENT (  '', '', ( #50 ) ) ;
#14 =( NAMED_UNIT ( * ) SI_UNIT ( $, .STERADIAN. ) SOLID_ANGLE_UNIT ( ) );
#15 = UNCERTAINTY_MEASURE_WITH_UNIT (LENGTH_MEASURE( 1.000000000000000100E-005 ), #256, 'distance_accuracy_value', 'NONE');
#16 =( LENGTH_UNIT ( ) NAMED_UNIT ( * ) SI_UNIT ( .MILLI., .METRE. ) );
#17 = ORIENTED_EDGE ( 'NONE', *, *, #126, .F. ) ;
#18 = AXIS2_PLACEMENT_3D ( 'NONE', #103, #223, #321 ) ;
#19 = ORIENTED_EDGE ( 'NONE', *, *, #202, .T. ) ;
#20 = CARTESIAN_POINT ( 'NONE',  ( 0.0000000000000000000, 0.0000000000000000000, 0.0000000000000000000 ) ) ;
#21 = ADVANCED_FACE ( 'NONE', ( #347 ), #387, .F. ) ;
#22 =( NAMED_UNIT ( * ) PLANE_ANGLE_UNIT ( ) SI_UNIT ( $, .RADIAN. ) );
#23 = VERTEX_POINT ( 'NONE', #245 ) ;
#24 = CARTESIAN_POINT ( 'NONE',  ( 6.158003332100355600E-016, 18.69134171618254600, 4.056782635430553600 ) ) ;
#25 = ADVANCED_FACE ( 'NONE', ( #205 ), #118, .F. ) ;
#26 = SURFACE_SIDE_STYLE ('',( #122 ) ) ;
#27 = AXIS2_PLACEMENT_3D ( 'NONE', #391, #161, #253 ) ;
#28 = DIRECTION ( 'NONE',  ( 0.0000000000000000000, 1.000000000000000000, 0.0000000000000000000 ) ) ;
#29 = ORIENTED_EDGE ( 'NONE', *, *, #343, .T. ) ;
#30 = VERTEX_POINT ( 'NONE', #320 ) ;
#31 = DIRECTION ( 'NONE',  ( -0.0000000000000000000, -1.000000000000000000, -0.0000000000000000000 ) ) ;
#32 = FILL_AREA_STYLE_COLOUR ( '', #314 ) ;
#33 = AXIS2_PLACEMENT_3D ( 'NONE', #352, #252, #156 ) ;
#34 = EDGE_CURVE ( 'NONE', #23, #47, #356, .T. ) ;
#35 = CONICAL_SURFACE ( 'NONE', #218, 6.000000000000000000, 0.3926990816987180300 ) ;
#36 = SHAPE_DEFINITION_REPRESENTATION ( #203, #267 ) ;
#37 = ORIENTED_EDGE ( 'NONE', *, *, #177, .F. ) ;
#38 = DIRECTION ( 'NONE',  ( 1.049727191138617500E-016, -0.5150380749100558200, 0.8571673007021113300 ) ) ;
#39 =( LENGTH_UNIT ( ) NAMED_UNIT ( * ) SI_UNIT ( .MILLI., .METRE. ) );
#40 = VECTOR ( 'NONE', #406, 1000.000000000000000 ) ;
#41 = DIRECTION ( 'NONE',  ( 1.000000000000000000, 0.0000000000000000000, 0.0000000000000000000 ) ) ;
#42 = MECHANICAL_DESIGN_GEOMETRIC_PRESENTATION_REPRESENTATION (  '', ( #353 ), #142 ) ;
#43 = APPLICATION_PROTOCOL_DEFINITION ( 'draft international standard', 'automotive_design', 1998, #178 ) ;
#44 = APPLICATION_CONTEXT ( 'automotive_design' ) ;
#45 = SURFACE_STYLE_USAGE ( .BOTH. , #213 ) ;
#46 = SURFACE_STYLE_FILL_AREA ( #330 ) ;
#47 = VERTEX_POINT ( 'NONE', #381 ) ;
#48 = DIRECTION ( 'NONE',  ( 0.0000000000000000000, 0.0000000000000000000, -1.000000000000000000 ) ) ;
#49 = CIRCLE ( 'NONE', #12, 6.000000000000000000 ) ;
#50 = STYLED_ITEM ( 'NONE', ( #94 ), #261 ) ;
#51 = ORIENTED_EDGE ( 'NONE', *, *, #236, .F. ) ;
#52 = LINE ( 'NONE', #75, #132 ) ;
#53 =( NAMED_UNIT ( * ) SI_UNIT ( $, .STERADIAN. ) SOLID_ANGLE_UNIT ( ) );
#54 = DIRECTION ( 'NONE',  ( -0.0000000000000000000, -1.000000000000000000, -0.0000000000000000000 ) ) ;
#55 =( NAMED_UNIT ( * ) PLANE_ANGLE_UNIT ( ) SI_UNIT ( $, .RADIAN. ) );
#56 = DIRECTION ( 'NONE',  ( -0.0000000000000000000, -1.000000000000000000, -0.0000000000000000000 ) ) ;
#57 = AXIS2_PLACEMENT_3D ( 'NONE', #105, #139, #336 ) ;
#58 = ORIENTED_EDGE ( 'NONE', *, *, #219, .T. ) ;
#59 = ADVANCED_FACE ( 'NONE', ( #221 ), #319, .T. ) ;
#60 = EDGE_CURVE ( 'NONE', #47, #292, #287, .T. ) ;
#61 =( NAMED_UNIT ( * ) PLANE_ANGLE_UNIT ( ) SI_UNIT ( $, .RADIAN. ) );
#62 = DIRECTION ( 'NONE',  ( 0.0000000000000000000, 0.0000000000000000000, 1.000000000000000000 ) ) ;
#63 = ADVANCED_FACE ( 'NONE', ( #162 ), #35, .T. ) ;
#64 = CIRCLE ( 'NONE', #393, 3.594842869174909300 ) ;
#65 = ORIENTED_EDGE ( 'NONE', *, *, #236, .T. ) ;
#66 = DIRECTION ( 'NONE',  ( 1.000000000000000000, -0.0000000000000000000, 1.224646799147353200E-016 ) ) ;
#67 = EDGE_CURVE ( 'NONE', #149, #275, #137, .T. ) ;
#68 = CARTESIAN_POINT ( 'NONE',  ( 0.0000000000000000000, 19.00000000000000000, 3.594842869174909300 ) ) ;
#69 =( NAMED_UNIT ( * ) PLANE_ANGLE_UNIT ( ) SI_UNIT ( $, .RADIAN. ) );
#70 = AXIS2_PLACEMENT_3D ( 'NONE', #354, #158, #62 ) ;
#71 = CARTESIAN_POINT ( 'NONE',  ( 0.0000000000000000000, 18.50000000000000000, 0.0000000000000000000 ) ) ;
#72 = VECTOR ( 'NONE', #151, 1000.000000000000000 ) ;
#73 =( LENGTH_UNIT ( ) NAMED_UNIT ( * ) SI_UNIT ( .MILLI., .METRE. ) );
#74 = UNCERTAINTY_MEASURE_WITH_UNIT (LENGTH_MEASURE( 1.000000000000000100E-005 ), #222, 'distance_accuracy_value', 'NONE');
#75 = CARTESIAN_POINT ( 'NONE',  ( 0.0000000000000000000, 13.99999999999999800, -6.000000000000000000 ) ) ;
#76 = FACE_OUTER_BOUND ( 'NONE', #164, .T. ) ;
#77 = DIRECTION ( 'NONE',  ( 0.0000000000000000000, 0.0000000000000000000, -1.000000000000000000 ) ) ;
#78 = VECTOR ( 'NONE', #38, 1000.000000000000000 ) ;
#79 = ORIENTED_EDGE ( 'NONE', *, *, #312, .F. ) ;
#80 = AXIS2_PLACEMENT_3D ( 'NONE', #138, #172, #301 ) ;
#81 =( NAMED_UNIT ( * ) SI_UNIT ( $, .STERADIAN. ) SOLID_ANGLE_UNIT ( ) );
#82 = CIRCLE ( 'NONE', #247, 0.4999999999999995600 ) ;
#83 = AXIS2_PLACEMENT_3D ( 'NONE', #71, #204, #234 ) ;
#84 = LINE ( 'NONE', #154, #268 ) ;
#85 = CIRCLE ( 'NONE', #230, 6.000000000000000000 ) ;
#86 = FILL_AREA_STYLE_COLOUR ( '', #195 ) ;
#87 = CIRCLE ( 'NONE', #57, 6.000000000000000000 ) ;
#88 = ORIENTED_EDGE ( 'NONE', *, *, #312, .T. ) ;
#89 = DIRECTION ( 'NONE',  ( 0.0000000000000000000, 1.000000000000000000, 0.0000000000000000000 ) ) ;
#90 = EDGE_CURVE ( 'NONE', #227, #30, #148, .T. ) ;
#91 = CARTESIAN_POINT ( 'NONE',  ( 0.0000000000000000000, -3.862851575547665600, 0.0000000000000000000 ) ) ;
#92 = MECHANICAL_DESIGN_GEOMETRIC_PRESENTATION_REPRESENTATION (  '', ( #201 ), #284 ) ;
#93 = ORIENTED_EDGE ( 'NONE', *, *, #101, .T. ) ;
#94 = PRESENTATION_STYLE_ASSIGNMENT (( #369 ) ) ;
#95 = ORIENTED_EDGE ( 'NONE', *, *, #171, .T. ) ;
#96 = DIRECTION ( 'NONE',  ( 0.0000000000000000000, 0.0000000000000000000, -1.000000000000000000 ) ) ;
#97 = UNCERTAINTY_MEASURE_WITH_UNIT (LENGTH_MEASURE( 1.000000000000000100E-005 ), #16, 'distance_accuracy_value', 'NONE');
#98 = FILL_AREA_STYLE ('',( #197 ) ) ;
#99 = FACE_OUTER_BOUND ( 'NONE', #390, .T. ) ;
#100 = LINE ( 'NONE', #338, #310 ) ;
#101 = EDGE_CURVE ( 'NONE', #275, #133, #84, .T. ) ;
#102 = DIRECTION ( 'NONE',  ( 1.224646799147353500E-016, 0.0000000000000000000, -1.000000000000000000 ) ) ;
#103 = CARTESIAN_POINT ( 'NONE',  ( 0.0000000000000000000, 13.99999999999999800, 0.0000000000000000000 ) ) ;
#104 = PRESENTATION_STYLE_ASSIGNMENT (( #131 ) ) ;
#105 = CARTESIAN_POINT ( 'NONE',  ( 0.0000000000000000000, 13.99999999999999800, 0.0000000000000000000 ) ) ;
#106 = ORIENTED_EDGE ( 'NONE', *, *, #285, .T. ) ;
#107 = FILL_AREA_STYLE ('',( #32 ) ) ;
#108 = CARTESIAN_POINT ( 'NONE',  ( 0.0000000000000000000, -1.353234713057822300E-015, -1.649999999999989900 ) ) ;
#109 = AXIS2_PLACEMENT_3D ( 'NONE', #297, #364, #337 ) ;
#110 = EDGE_CURVE ( 'NONE', #4, #133, #49, .T. ) ;
#111 = ORIENTED_EDGE ( 'NONE', *, *, #290, .T. ) ;
#112 = CIRCLE ( 'NONE', #70, 4.056782635430553600 ) ;
#113 = MECHANICAL_DESIGN_GEOMETRIC_PRESENTATION_REPRESENTATION (  '', ( #50 ), #386 ) ;
#114 = CARTESIAN_POINT ( 'NONE',  ( 0.0000000000000000000, 0.0000000000000000000, -6.000000000000000000 ) ) ;
#115 = EDGE_LOOP ( 'NONE', ( #362, #315, #95 ) ) ;
#116 = CARTESIAN_POINT ( 'NONE',  ( 0.0000000000000000000, 0.0000000000000000000, 0.0000000000000000000 ) ) ;
#117 = AXIS2_PLACEMENT_3D ( 'NONE', #198, #258, #324 ) ;
#118 = CYLINDRICAL_SURFACE ( 'NONE', #309, 1.649999999999993500 ) ;
#119 = FACE_OUTER_BOUND ( 'NONE', #342, .T. ) ;
#120 = DIRECTION ( 'NONE',  ( 0.0000000000000000000, 0.0000000000000000000, 1.000000000000000000 ) ) ;
#121 = EDGE_LOOP ( 'NONE', ( #51, #143, #313, #106 ) ) ;
#122 = SURFACE_STYLE_FILL_AREA ( #98 ) ;
#123 = CARTESIAN_POINT ( 'NONE',  ( 0.0000000000000000000, 0.0000000000000000000, -1.649999999999993500 ) ) ;
#124 = FILL_AREA_STYLE ('',( #351 ) ) ;
#125 =( GEOMETRIC_REPRESENTATION_CONTEXT ( 3 ) GLOBAL_UNCERTAINTY_ASSIGNED_CONTEXT ( ( #159 ) ) GLOBAL_UNIT_ASSIGNED_CONTEXT ( ( #39, #176, #81 ) ) REPRESENTATION_CONTEXT ( 'NONE', 'WORKASPACE' ) );
#126 = EDGE_CURVE ( 'NONE', #244, #47, #366, .T. ) ;
#127 = DIRECTION ( 'NONE',  ( -1.000000000000000000, 0.0000000000000000000, 0.0000000000000000000 ) ) ;
#128 = CARTESIAN_POINT ( 'NONE',  ( 7.347880794884119700E-016, 13.99999999999999800, 6.000000000000000000 ) ) ;
#129 = ADVANCED_FACE ( 'NONE', ( #348, #76 ), #220, .T. ) ;
#130 = FILL_AREA_STYLE_COLOUR ( '', #232 ) ;
#131 = SURFACE_STYLE_USAGE ( .BOTH. , #26 ) ;
#132 = VECTOR ( 'NONE', #365, 1000.000000000000000 ) ;
#133 = VERTEX_POINT ( 'NONE', #350 ) ;
#134 = PRESENTATION_LAYER_ASSIGNMENT (  '', '', ( #192 ) ) ;
#135 = DIRECTION ( 'NONE',  ( -0.0000000000000000000, -1.000000000000000000, -0.0000000000000000000 ) ) ;
#136 = AXIS2_PLACEMENT_3D ( 'NONE', #140, #135, #396 ) ;
#137 = LINE ( 'NONE', #248, #40 ) ;
#138 = CARTESIAN_POINT ( 'NONE',  ( 0.0000000000000000000, -1.353234713057822300E-015, 0.0000000000000000000 ) ) ;
#139 = DIRECTION ( 'NONE',  ( -0.0000000000000000000, -1.000000000000000000, -0.0000000000000000000 ) ) ;
#140 = CARTESIAN_POINT ( 'NONE',  ( 0.0000000000000000000, 18.69134171618254600, 0.0000000000000000000 ) ) ;
#141 = FACE_OUTER_BOUND ( 'NONE', #211, .T. ) ;
#142 =( GEOMETRIC_REPRESENTATION_CONTEXT ( 3 ) GLOBAL_UNCERTAINTY_ASSIGNED_CONTEXT ( ( #15 ) ) GLOBAL_UNIT_ASSIGNED_CONTEXT ( ( #256, #22, #200 ) ) REPRESENTATION_CONTEXT ( 'NONE', 'WORKASPACE' ) );
#143 = ORIENTED_EDGE ( 'NONE', *, *, #171, .F. ) ;
#144 =( LENGTH_UNIT ( ) NAMED_UNIT ( * ) SI_UNIT ( .MILLI., .METRE. ) );
#145 = COLOUR_RGB ( '',1.000000000000000000, 1.000000000000000000, 0.5019607843137254800 ) ;
#146 = ORIENTED_EDGE ( 'NONE', *, *, #90, .F. ) ;
#147 = EDGE_CURVE ( 'NONE', #377, #30, #325, .T. ) ;
#148 = CIRCLE ( 'NONE', #273, 3.594842869174909300 ) ;
#149 = VERTEX_POINT ( 'NONE', #24 ) ;
#150 = LINE ( 'NONE', #359, #180 ) ;
#151 = DIRECTION ( 'NONE',  ( 0.0000000000000000000, -0.5150380749100558200, -0.8571673007021113300 ) ) ;
#152 = DIRECTION ( 'NONE',  ( -0.0000000000000000000, -1.000000000000000000, -0.0000000000000000000 ) ) ;
#153 =( GEOMETRIC_REPRESENTATION_CONTEXT ( 3 ) GLOBAL_UNCERTAINTY_ASSIGNED_CONTEXT ( ( #74 ) ) GLOBAL_UNIT_ASSIGNED_CONTEXT ( ( #222, #61, #293 ) ) REPRESENTATION_CONTEXT ( 'NONE', 'WORKASPACE' ) );
#154 = CARTESIAN_POINT ( 'NONE',  ( 7.347880794884119700E-016, -3.862851575547665600, 6.000000000000000000 ) ) ;
#155 = PRESENTATION_STYLE_ASSIGNMENT (( #345 ) ) ;
#156 = DIRECTION ( 'NONE',  ( 0.0000000000000000000, 0.0000000000000000000, -1.000000000000000000 ) ) ;
#157 = ADVANCED_FACE ( 'NONE', ( #141 ), #304, .T. ) ;
#158 = DIRECTION ( 'NONE',  ( -0.0000000000000000000, -1.000000000000000000, -0.0000000000000000000 ) ) ;
#159 = UNCERTAINTY_MEASURE_WITH_UNIT (LENGTH_MEASURE( 1.000000000000000100E-005 ), #39, 'distance_accuracy_value', 'NONE');
#160 = ADVANCED_FACE ( 'NONE', ( #291 ), #371, .F. ) ;
#161 = DIRECTION ( 'NONE',  ( -0.0000000000000000000, -1.000000000000000000, -0.0000000000000000000 ) ) ;
#162 = FACE_OUTER_BOUND ( 'NONE', #383, .T. ) ;
#163 = CIRCLE ( 'NONE', #136, 4.056782635430553600 ) ;
#164 = EDGE_LOOP ( 'NONE', ( #368, #8 ) ) ;
#165 = DIRECTION ( 'NONE',  ( 0.0000000000000000000, 0.0000000000000000000, 1.000000000000000000 ) ) ;
#166 = MECHANICAL_DESIGN_GEOMETRIC_PRESENTATION_REPRESENTATION (  '', ( #279 ), #153 ) ;
#167 = DIRECTION ( 'NONE',  ( 0.0000000000000000000, 0.0000000000000000000, -1.000000000000000000 ) ) ;
#168 = SURFACE_SIDE_STYLE ('',( #183 ) ) ;
#169 = ORIENTED_EDGE ( 'NONE', *, *, #361, .F. ) ;
#170 = AXIS2_PLACEMENT_3D ( 'NONE', #5, #225, #167 ) ;
#171 = EDGE_CURVE ( 'NONE', #47, #23, #243, .T. ) ;
#172 = DIRECTION ( 'NONE',  ( -0.0000000000000000000, -1.000000000000000000, -0.0000000000000000000 ) ) ;
#173 = CARTESIAN_POINT ( 'NONE',  ( 0.0000000000000000000, 18.69134171618254600, -4.056782635430553600 ) ) ;
#174 = LINE ( 'NONE', #237, #78 ) ;
#175 = ORIENTED_EDGE ( 'NONE', *, *, #285, .F. ) ;
#176 =( NAMED_UNIT ( * ) PLANE_ANGLE_UNIT ( ) SI_UNIT ( $, .RADIAN. ) );
#177 = EDGE_CURVE ( 'NONE', #30, #227, #64, .T. ) ;
#178 = APPLICATION_CONTEXT ( 'automotive_design' ) ;
#179 = ORIENTED_EDGE ( 'NONE', *, *, #376, .F. ) ;
#180 = VECTOR ( 'NONE', #395, 1000.000000000000000 ) ;
#181 = ORIENTED_EDGE ( 'NONE', *, *, #34, .F. ) ;
#182 = PRODUCT_CONTEXT ( 'NONE', #44, 'mechanical' ) ;
#183 = SURFACE_STYLE_FILL_AREA ( #107 ) ;
#184 = CARTESIAN_POINT ( 'NONE',  ( 0.0000000000000000000, 19.00000000000000000, 0.0000000000000000000 ) ) ;
#185 = AXIS2_PLACEMENT_3D ( 'NONE', #20, #286, #280 ) ;
#186 = ADVANCED_FACE ( 'NONE', ( #99 ), #208, .T. ) ;
#187 = SURFACE_SIDE_STYLE ('',( #214 ) ) ;
#188 = DIRECTION ( 'NONE',  ( 0.0000000000000000000, 0.0000000000000000000, -1.000000000000000000 ) ) ;
#189 = CARTESIAN_POINT ( 'NONE',  ( 0.0000000000000000000, 13.99999999999999800, 0.0000000000000000000 ) ) ;
#190 = DIRECTION ( 'NONE',  ( -0.0000000000000000000, -1.000000000000000000, -0.0000000000000000000 ) ) ;
#191 = PRESENTATION_LAYER_ASSIGNMENT (  '', '', ( #294 ) ) ;
#192 = STYLED_ITEM ( 'NONE', ( #270 ), #21 ) ;
#193 = UNCERTAINTY_MEASURE_WITH_UNIT (LENGTH_MEASURE( 1.000000000000000100E-005 ), #73, 'distance_accuracy_value', 'NONE');
#194 = SURFACE_SIDE_STYLE ('',( #46 ) ) ;
#195 = COLOUR_RGB ( '',1.000000000000000000, 1.000000000000000000, 0.5019607843137254800 ) ;
#196 = CARTESIAN_POINT ( 'NONE',  ( 0.0000000000000000000, 18.50000000000000000, 3.594842869174909300 ) ) ;
#197 = FILL_AREA_STYLE_COLOUR ( '', #282 ) ;
#198 = CARTESIAN_POINT ( 'NONE',  ( 0.0000000000000000000, 18.50000000000000000, 0.0000000000000000000 ) ) ;
#199 = ORIENTED_EDGE ( 'NONE', *, *, #67, .T. ) ;
#200 =( NAMED_UNIT ( * ) SI_UNIT ( $, .STERADIAN. ) SOLID_ANGLE_UNIT ( ) );
#201 = STYLED_ITEM ( 'NONE', ( #382 ), #25 ) ;
#202 = EDGE_CURVE ( 'NONE', #300, #275, #226, .T. ) ;
#203 = PRODUCT_DEFINITION_SHAPE ( 'NONE', 'NONE',  #7 ) ;
#204 = DIRECTION ( 'NONE',  ( 0.0000000000000000000, 1.000000000000000000, 0.0000000000000000000 ) ) ;
#205 = FACE_OUTER_BOUND ( 'NONE', #206, .T. ) ;
#206 = EDGE_LOOP ( 'NONE', ( #181, #65, #373, #283 ) ) ;
#207 = DIRECTION ( 'NONE',  ( 0.0000000000000000000, 1.000000000000000000, 0.0000000000000000000 ) ) ;
#208 = CYLINDRICAL_SURFACE ( 'NONE', #317, 6.000000000000000000 ) ;
#209 = DIRECTION ( 'NONE',  ( -0.0000000000000000000, -1.000000000000000000, -0.0000000000000000000 ) ) ;
#210 = AXIS2_PLACEMENT_3D ( 'NONE', #2, #360, #385 ) ;
#211 = EDGE_LOOP ( 'NONE', ( #288, #346, #58, #37 ) ) ;
#212 = EDGE_CURVE ( 'NONE', #149, #377, #112, .T. ) ;
#213 = SURFACE_SIDE_STYLE ('',( #388 ) ) ;
#214 = SURFACE_STYLE_FILL_AREA ( #124 ) ;
#215 = SURFACE_STYLE_USAGE ( .BOTH. , #187 ) ;
#216 = UNCERTAINTY_MEASURE_WITH_UNIT (LENGTH_MEASURE( 1.000000000000000100E-005 ), #144, 'distance_accuracy_value', 'NONE');
#217 = ORIENTED_EDGE ( 'NONE', *, *, #335, .F. ) ;
#218 = AXIS2_PLACEMENT_3D ( 'NONE', #189, #190, #316 ) ;
#219 = EDGE_CURVE ( 'NONE', #149, #227, #82, .T. ) ;
#220 = PLANE ( 'NONE',  #185 ) ;
#221 = FACE_OUTER_BOUND ( 'NONE', #233, .T. ) ;
#222 =( LENGTH_UNIT ( ) NAMED_UNIT ( * ) SI_UNIT ( .MILLI., .METRE. ) );
#223 = DIRECTION ( 'NONE',  ( -0.0000000000000000000, -1.000000000000000000, -0.0000000000000000000 ) ) ;
#224 = ADVANCED_FACE ( 'NONE', ( #363 ), #271, .F. ) ;
#225 = DIRECTION ( 'NONE',  ( -0.0000000000000000000, -1.000000000000000000, -0.0000000000000000000 ) ) ;
#226 = CIRCLE ( 'NONE', #18, 6.000000000000000000 ) ;
#227 = VERTEX_POINT ( 'NONE', #68 ) ;
#228 = TOROIDAL_SURFACE ( 'NONE', #83, 3.594842869174909300, 0.5000000000000000000 ) ;
#229 = SURFACE_STYLE_USAGE ( .BOTH. , #194 ) ;
#230 = AXIS2_PLACEMENT_3D ( 'NONE', #269, #302, #331 ) ;
#231 = PRODUCT ( '20616~0', '20616~0', '', ( #182 ) ) ;
#232 = COLOUR_RGB ( '',1.000000000000000000, 1.000000000000000000, 0.5019607843137254800 ) ;
#233 = EDGE_LOOP ( 'NONE', ( #306, #394, #250, #217 ) ) ;
#234 = DIRECTION ( 'NONE',  ( 0.0000000000000000000, 0.0000000000000000000, 1.000000000000000000 ) ) ;
#235 = MECHANICAL_DESIGN_GEOMETRIC_PRESENTATION_REPRESENTATION (  '', ( #294 ), #254 ) ;
#236 = EDGE_CURVE ( 'NONE', #23, #263, #150, .T. ) ;
#237 = CARTESIAN_POINT ( 'NONE',  ( 2.020667218593129100E-016, 11.00000000000000000, 1.649999999999997000 ) ) ;
#238 = AXIS2_PLACEMENT_3D ( 'NONE', #392, #209, #77 ) ;
#239 = COLOUR_RGB ( '',1.000000000000000000, 1.000000000000000000, 1.000000000000000000 ) ;
#240 = ORIENTED_EDGE ( 'NONE', *, *, #219, .F. ) ;
#241 = FACE_OUTER_BOUND ( 'NONE', #10, .T. ) ;
#242 = APPLICATION_PROTOCOL_DEFINITION ( 'draft international standard', 'automotive_design', 1998, #44 ) ;
#243 = CIRCLE ( 'NONE', #210, 1.649999999999997000 ) ;
#244 = VERTEX_POINT ( 'NONE', #262 ) ;
#245 = CARTESIAN_POINT ( 'NONE',  ( 2.020667218593129100E-016, 11.00000000000000000, 1.649999999999996800 ) ) ;
#246 = DIRECTION ( 'NONE',  ( 0.0000000000000000000, 0.0000000000000000000, -1.000000000000000000 ) ) ;
#247 = AXIS2_PLACEMENT_3D ( 'NONE', #196, #127, #165 ) ;
#248 = CARTESIAN_POINT ( 'NONE',  ( 7.347880794884119700E-016, 13.99999999999999800, 6.000000000000000000 ) ) ;
#249 = CARTESIAN_POINT ( 'NONE',  ( 0.0000000000000000000, 11.00000000000000000, -1.649999999999997000 ) ) ;
#250 = ORIENTED_EDGE ( 'NONE', *, *, #361, .T. ) ;
#251 = UNCERTAINTY_MEASURE_WITH_UNIT (LENGTH_MEASURE( 1.000000000000000100E-005 ), #403, 'distance_accuracy_value', 'NONE');
#252 = DIRECTION ( 'NONE',  ( -0.0000000000000000000, -1.000000000000000000, -0.0000000000000000000 ) ) ;
#253 = DIRECTION ( 'NONE',  ( 0.0000000000000000000, 0.0000000000000000000, -1.000000000000000000 ) ) ;
#254 =( GEOMETRIC_REPRESENTATION_CONTEXT ( 3 ) GLOBAL_UNCERTAINTY_ASSIGNED_CONTEXT ( ( #216 ) ) GLOBAL_UNIT_ASSIGNED_CONTEXT ( ( #144, #308, #305 ) ) REPRESENTATION_CONTEXT ( 'NONE', 'WORKASPACE' ) );
#255 = MECHANICAL_DESIGN_GEOMETRIC_PRESENTATION_REPRESENTATION (  '', ( #192 ), #277 ) ;
#256 =( LENGTH_UNIT ( ) NAMED_UNIT ( * ) SI_UNIT ( .MILLI., .METRE. ) );
#257 = ORIENTED_EDGE ( 'NONE', *, *, #212, .T. ) ;
#258 = DIRECTION ( 'NONE',  ( 0.0000000000000000000, 1.000000000000000000, 0.0000000000000000000 ) ) ;
#259 = CARTESIAN_POINT ( 'NONE',  ( 0.0000000000000000000, 19.00000000000000000, 0.0000000000000000000 ) ) ;
#260 = DIRECTION ( 'NONE',  ( 0.0000000000000000000, 0.0000000000000000000, -1.000000000000000000 ) ) ;
#261 = MANIFOLD_SOLID_BREP ( 'Verrundung1', #307 ) ;
#262 = CARTESIAN_POINT ( 'NONE',  ( -2.937050829286691200E-015, 11.99142002139547500, 0.0000000000000000000 ) ) ;
#263 = VERTEX_POINT ( 'NONE', #264 ) ;
#264 = CARTESIAN_POINT ( 'NONE',  ( 2.020667218593122900E-016, -1.353234713057822300E-015, 1.649999999999989900 ) ) ;
#265 = AXIS2_PLACEMENT_3D ( 'NONE', #116, #400, #48 ) ;
#266 = PLANE ( 'NONE',  #344 ) ;
#267 = ADVANCED_BREP_SHAPE_REPRESENTATION ( '20616~0', ( #261, #303 ), #125 ) ;
#268 = VECTOR ( 'NONE', #380, 1000.000000000000000 ) ;
#269 = CARTESIAN_POINT ( 'NONE',  ( 0.0000000000000000000, 0.0000000000000000000, 0.0000000000000000000 ) ) ;
#270 = PRESENTATION_STYLE_ASSIGNMENT (( #45 ) ) ;
#271 = CONICAL_SURFACE ( 'NONE', #170, 1.649999999999997000, 1.029744258676652500 ) ;
#272 = EDGE_CURVE ( 'NONE', #275, #300, #87, .T. ) ;
#273 = AXIS2_PLACEMENT_3D ( 'NONE', #184, #89, #120 ) ;
#274 = SURFACE_SIDE_STYLE ('',( #357 ) ) ;
#275 = VERTEX_POINT ( 'NONE', #128 ) ;
#276 = FILL_AREA_STYLE ('',( #9 ) ) ;
#277 =( GEOMETRIC_REPRESENTATION_CONTEXT ( 3 ) GLOBAL_UNCERTAINTY_ASSIGNED_CONTEXT ( ( #97 ) ) GLOBAL_UNIT_ASSIGNED_CONTEXT ( ( #16, #378, #53 ) ) REPRESENTATION_CONTEXT ( 'NONE', 'WORKASPACE' ) );
#278 = ORIENTED_EDGE ( 'NONE', *, *, #343, .F. ) ;
#279 = STYLED_ITEM ( 'NONE', ( #104 ), #224 ) ;
#280 = DIRECTION ( 'NONE',  ( 0.0000000000000000000, 0.0000000000000000000, -1.000000000000000000 ) ) ;
#281 = EDGE_LOOP ( 'NONE', ( #175, #179 ) ) ;
#282 = COLOUR_RGB ( '',1.000000000000000000, 1.000000000000000000, 0.5019607843137254800 ) ;
#283 = ORIENTED_EDGE ( 'NONE', *, *, #60, .F. ) ;
#284 =( GEOMETRIC_REPRESENTATION_CONTEXT ( 3 ) GLOBAL_UNCERTAINTY_ASSIGNED_CONTEXT ( ( #251 ) ) GLOBAL_UNIT_ASSIGNED_CONTEXT ( ( #403, #55, #14 ) ) REPRESENTATION_CONTEXT ( 'NONE', 'WORKASPACE' ) );
#285 = EDGE_CURVE ( 'NONE', #292, #263, #341, .T. ) ;
#286 = DIRECTION ( 'NONE',  ( 0.0000000000000000000, -1.000000000000000000, -0.0000000000000000000 ) ) ;
#287 = LINE ( 'NONE', #123, #339 ) ;
#288 = ORIENTED_EDGE ( 'NONE', *, *, #147, .F. ) ;
#289 = ADVANCED_FACE ( 'NONE', ( #241 ), #266, .T. ) ;
#290 = EDGE_CURVE ( 'NONE', #244, #23, #174, .T. ) ;
#291 = FACE_OUTER_BOUND ( 'NONE', #397, .T. ) ;
#292 = VERTEX_POINT ( 'NONE', #108 ) ;
#293 =( NAMED_UNIT ( * ) SI_UNIT ( $, .STERADIAN. ) SOLID_ANGLE_UNIT ( ) );
#294 = STYLED_ITEM ( 'NONE', ( #155 ), #267 ) ;
#295 = ORIENTED_EDGE ( 'NONE', *, *, #202, .F. ) ;
#296 =( NAMED_UNIT ( * ) SI_UNIT ( $, .STERADIAN. ) SOLID_ANGLE_UNIT ( ) );
#297 = CARTESIAN_POINT ( 'NONE',  ( 0.0000000000000000000, 13.99999999999999800, 0.0000000000000000000 ) ) ;
#298 = PRESENTATION_STYLE_ASSIGNMENT (( #229 ) ) ;
#299 = CONICAL_SURFACE ( 'NONE', #109, 6.000000000000000000, 0.3926990816987180300 ) ;
#300 = VERTEX_POINT ( 'NONE', #333 ) ;
#301 = DIRECTION ( 'NONE',  ( 0.0000000000000000000, 0.0000000000000000000, -1.000000000000000000 ) ) ;
#302 = DIRECTION ( 'NONE',  ( -0.0000000000000000000, -1.000000000000000000, -0.0000000000000000000 ) ) ;
#303 = AXIS2_PLACEMENT_3D ( 'NONE', #370, #398, #41 ) ;
#304 = TOROIDAL_SURFACE ( 'NONE', #117, 3.594842869174909300, 0.5000000000000000000 ) ;
#305 =( NAMED_UNIT ( * ) SI_UNIT ( $, .STERADIAN. ) SOLID_ANGLE_UNIT ( ) );
#306 = ORIENTED_EDGE ( 'NONE', *, *, #101, .F. ) ;
#307 = CLOSED_SHELL ( 'NONE', ( #328, #160, #25, #355, #186, #129, #59, #63, #289, #21, #224, #157 ) ) ;
#308 =( NAMED_UNIT ( * ) PLANE_ANGLE_UNIT ( ) SI_UNIT ( $, .RADIAN. ) );
#309 = AXIS2_PLACEMENT_3D ( 'NONE', #311, #318, #96 ) ;
#310 = VECTOR ( 'NONE', #31, 1000.000000000000000 ) ;
#311 = CARTESIAN_POINT ( 'NONE',  ( 0.0000000000000000000, 0.0000000000000000000, 0.0000000000000000000 ) ) ;
#312 = EDGE_CURVE ( 'NONE', #377, #300, #52, .T. ) ;
#313 = ORIENTED_EDGE ( 'NONE', *, *, #60, .T. ) ;
#314 = COLOUR_RGB ( '',1.000000000000000000, 1.000000000000000000, 1.000000000000000000 ) ;
#315 = ORIENTED_EDGE ( 'NONE', *, *, #126, .T. ) ;
#316 = DIRECTION ( 'NONE',  ( 0.0000000000000000000, 0.0000000000000000000, -1.000000000000000000 ) ) ;
#317 = AXIS2_PLACEMENT_3D ( 'NONE', #389, #6, #260 ) ;
#318 = DIRECTION ( 'NONE',  ( -0.0000000000000000000, -1.000000000000000000, -0.0000000000000000000 ) ) ;
#319 = CYLINDRICAL_SURFACE ( 'NONE', #405, 6.000000000000000000 ) ;
#320 = CARTESIAN_POINT ( 'NONE',  ( 4.685269341244665600E-016, 19.00000000000000000, -3.594842869174909300 ) ) ;
#321 = DIRECTION ( 'NONE',  ( 0.0000000000000000000, 0.0000000000000000000, -1.000000000000000000 ) ) ;
#322 = PRODUCT_RELATED_PRODUCT_CATEGORY ( 'part', '', ( #231 ) ) ;
#323 = PRODUCT_DEFINITION_CONTEXT ( 'detailed design', #178, 'design' ) ;
#324 = DIRECTION ( 'NONE',  ( 0.0000000000000000000, 0.0000000000000000000, 1.000000000000000000 ) ) ;
#325 = CIRCLE ( 'NONE', #334, 0.4999999999999995600 ) ;
#326 = PRESENTATION_LAYER_ASSIGNMENT (  '', '', ( #201 ) ) ;
#327 = ORIENTED_EDGE ( 'NONE', *, *, #177, .T. ) ;
#328 = ADVANCED_FACE ( 'NONE', ( #3 ), #228, .T. ) ;
#329 = ORIENTED_EDGE ( 'NONE', *, *, #34, .T. ) ;
#330 = FILL_AREA_STYLE ('',( #130 ) ) ;
#331 = DIRECTION ( 'NONE',  ( 0.0000000000000000000, 0.0000000000000000000, -1.000000000000000000 ) ) ;
#332 = CIRCLE ( 'NONE', #238, 1.649999999999989900 ) ;
#333 = CARTESIAN_POINT ( 'NONE',  ( 0.0000000000000000000, 13.99999999999999800, -6.000000000000000000 ) ) ;
#334 = AXIS2_PLACEMENT_3D ( 'NONE', #384, #66, #102 ) ;
#335 = EDGE_CURVE ( 'NONE', #133, #4, #85, .T. ) ;
#336 = DIRECTION ( 'NONE',  ( 0.0000000000000000000, 0.0000000000000000000, -1.000000000000000000 ) ) ;
#337 = DIRECTION ( 'NONE',  ( 0.0000000000000000000, 0.0000000000000000000, -1.000000000000000000 ) ) ;
#338 = CARTESIAN_POINT ( 'NONE',  ( 0.0000000000000000000, -3.862851575547665600, -6.000000000000000000 ) ) ;
#339 = VECTOR ( 'NONE', #56, 1000.000000000000000 ) ;
#340 = ORIENTED_EDGE ( 'NONE', *, *, #147, .T. ) ;
#341 = CIRCLE ( 'NONE', #80, 1.649999999999989900 ) ;
#342 = EDGE_LOOP ( 'NONE', ( #29, #199, #295, #79 ) ) ;
#343 = EDGE_CURVE ( 'NONE', #377, #149, #163, .T. ) ;
#344 = AXIS2_PLACEMENT_3D ( 'NONE', #367, #207, #11 ) ;
#345 = SURFACE_STYLE_USAGE ( .BOTH. , #274 ) ;
#346 = ORIENTED_EDGE ( 'NONE', *, *, #212, .F. ) ;
#347 = FACE_OUTER_BOUND ( 'NONE', #121, .T. ) ;
#348 = FACE_BOUND ( 'NONE', #281, .T. ) ;
#349 = PRESENTATION_LAYER_ASSIGNMENT (  '', '', ( #279 ) ) ;
#350 = CARTESIAN_POINT ( 'NONE',  ( 7.347880794884119700E-016, 0.0000000000000000000, 6.000000000000000000 ) ) ;
#351 = FILL_AREA_STYLE_COLOUR ( '', #145 ) ;
#352 = CARTESIAN_POINT ( 'NONE',  ( 0.0000000000000000000, 11.00000000000000000, 0.0000000000000000000 ) ) ;
#353 = STYLED_ITEM ( 'NONE', ( #298 ), #160 ) ;
#354 = CARTESIAN_POINT ( 'NONE',  ( 0.0000000000000000000, 18.69134171618254600, 0.0000000000000000000 ) ) ;
#355 = ADVANCED_FACE ( 'NONE', ( #119 ), #299, .T. ) ;
#356 = CIRCLE ( 'NONE', #33, 1.649999999999997000 ) ;
#357 = SURFACE_STYLE_FILL_AREA ( #276 ) ;
#358 = ORIENTED_EDGE ( 'NONE', *, *, #272, .F. ) ;
#359 = CARTESIAN_POINT ( 'NONE',  ( 2.020667218593124900E-016, 0.0000000000000000000, 1.649999999999993500 ) ) ;
#360 = DIRECTION ( 'NONE',  ( -0.0000000000000000000, -1.000000000000000000, -0.0000000000000000000 ) ) ;
#361 = EDGE_CURVE ( 'NONE', #300, #4, #100, .T. ) ;
#362 = ORIENTED_EDGE ( 'NONE', *, *, #290, .F. ) ;
#363 = FACE_OUTER_BOUND ( 'NONE', #115, .T. ) ;
#364 = DIRECTION ( 'NONE',  ( -0.0000000000000000000, -1.000000000000000000, -0.0000000000000000000 ) ) ;
#365 = DIRECTION ( 'NONE',  ( 0.0000000000000000000, -0.9238795325112890700, -0.3826834323650841200 ) ) ;
#366 = LINE ( 'NONE', #249, #72 ) ;
#367 = CARTESIAN_POINT ( 'NONE',  ( 3.928932188134560500, 19.00000000000000000, 0.0000000000000000000 ) ) ;
#368 = ORIENTED_EDGE ( 'NONE', *, *, #110, .T. ) ;
#369 = SURFACE_STYLE_USAGE ( .BOTH. , #168 ) ;
#370 = CARTESIAN_POINT ( 'NONE',  ( 0.0000000000000000000, 0.0000000000000000000, 0.0000000000000000000 ) ) ;
#371 = CONICAL_SURFACE ( 'NONE', #27, 1.649999999999997000, 1.029744258676652500 ) ;
#372 = ORIENTED_EDGE ( 'NONE', *, *, #90, .T. ) ;
#373 = ORIENTED_EDGE ( 'NONE', *, *, #376, .T. ) ;
#374 = PRESENTATION_LAYER_ASSIGNMENT (  '', '', ( #353 ) ) ;
#375 = EDGE_LOOP ( 'NONE', ( #278, #340, #146, #240 ) ) ;
#376 = EDGE_CURVE ( 'NONE', #263, #292, #332, .T. ) ;
#377 = VERTEX_POINT ( 'NONE', #173 ) ;
#378 =( NAMED_UNIT ( * ) PLANE_ANGLE_UNIT ( ) SI_UNIT ( $, .RADIAN. ) );
#379 = PRODUCT_DEFINITION_FORMATION_WITH_SPECIFIED_SOURCE ( 'ANY', '', #231, .NOT_KNOWN. ) ;
#380 = DIRECTION ( 'NONE',  ( -0.0000000000000000000, -1.000000000000000000, -0.0000000000000000000 ) ) ;
#381 = CARTESIAN_POINT ( 'NONE',  ( 0.0000000000000000000, 11.00000000000000000, -1.649999999999997000 ) ) ;
#382 = PRESENTATION_STYLE_ASSIGNMENT (( #215 ) ) ;
#383 = EDGE_LOOP ( 'NONE', ( #402, #257, #88, #358 ) ) ;
#384 = CARTESIAN_POINT ( 'NONE',  ( 4.402412813172740100E-016, 18.50000000000000000, -3.594842869174909300 ) ) ;
#385 = DIRECTION ( 'NONE',  ( 0.0000000000000000000, 0.0000000000000000000, -1.000000000000000000 ) ) ;
#386 =( GEOMETRIC_REPRESENTATION_CONTEXT ( 3 ) GLOBAL_UNCERTAINTY_ASSIGNED_CONTEXT ( ( #193 ) ) GLOBAL_UNIT_ASSIGNED_CONTEXT ( ( #73, #69, #296 ) ) REPRESENTATION_CONTEXT ( 'NONE', 'WORKASPACE' ) );
#387 = CYLINDRICAL_SURFACE ( 'NONE', #265, 1.649999999999993500 ) ;
#388 = SURFACE_STYLE_FILL_AREA ( #401 ) ;
#389 = CARTESIAN_POINT ( 'NONE',  ( 0.0000000000000000000, -3.862851575547665600, 0.0000000000000000000 ) ) ;
#390 = EDGE_LOOP ( 'NONE', ( #19, #93, #399, #169 ) ) ;
#391 = CARTESIAN_POINT ( 'NONE',  ( 0.0000000000000000000, 11.00000000000000000, 0.0000000000000000000 ) ) ;
#392 = CARTESIAN_POINT ( 'NONE',  ( 0.0000000000000000000, -1.353234713057822300E-015, 0.0000000000000000000 ) ) ;
#393 = AXIS2_PLACEMENT_3D ( 'NONE', #259, #28, #1 ) ;
#394 = ORIENTED_EDGE ( 'NONE', *, *, #272, .T. ) ;
#395 = DIRECTION ( 'NONE',  ( -0.0000000000000000000, -1.000000000000000000, -0.0000000000000000000 ) ) ;
#396 = DIRECTION ( 'NONE',  ( 0.0000000000000000000, 0.0000000000000000000, 1.000000000000000000 ) ) ;
#397 = EDGE_LOOP ( 'NONE', ( #17, #111, #329 ) ) ;
#398 = DIRECTION ( 'NONE',  ( 0.0000000000000000000, 0.0000000000000000000, 1.000000000000000000 ) ) ;
#399 = ORIENTED_EDGE ( 'NONE', *, *, #110, .F. ) ;
#400 = DIRECTION ( 'NONE',  ( -0.0000000000000000000, -1.000000000000000000, -0.0000000000000000000 ) ) ;
#401 = FILL_AREA_STYLE ('',( #86 ) ) ;
#402 = ORIENTED_EDGE ( 'NONE', *, *, #67, .F. ) ;
#403 =( LENGTH_UNIT ( ) NAMED_UNIT ( * ) SI_UNIT ( .MILLI., .METRE. ) );
#404 = CARTESIAN_POINT ( 'NONE',  ( 0.0000000000000000000, 0.0000000000000000000, 0.0000000000000000000 ) ) ;
#405 = AXIS2_PLACEMENT_3D ( 'NONE', #91, #152, #246 ) ;
#406 = DIRECTION ( 'NONE',  ( 4.686520405326228900E-017, -0.9238795325112890700, 0.3826834323650841200 ) ) ;
ENDSEC;
END-ISO-10303-21;
