ISO-10303-21;
HEADER;
FILE_DESCRIPTION (( 'STEP AP214' ),
    '1' );
FILE_NAME ('19462~0.STEP',
    '2017-07-04T13:52:19',
    ( '' ),
    ( '' ),
    'SwSTEP 2.0',
    'SolidWorks 2016',
    '' );
FILE_SCHEMA (( 'AUTOMOTIVE_DESIGN' ));
ENDSEC;

DATA;
#1 = SURFACE_STYLE_FILL_AREA ( #99 ) ;
#2 = ORIENTED_EDGE ( 'NONE', *, *, #32, .T. ) ;
#3 = DIRECTION ( 'NONE',  ( 0.0000000000000000000, 0.0000000000000000000, -1.000000000000000000 ) ) ;
#4 = STYLED_ITEM ( 'NONE', ( #305 ), #306 ) ;
#5 = CARTESIAN_POINT ( 'NONE',  ( -4.029598543499493600E-015, 16.45262794416288400, 0.0000000000000000000 ) ) ;
#6 = EDGE_CURVE ( 'NONE', #247, #170, #201, .T. ) ;
#7 = ORIENTED_EDGE ( 'NONE', *, *, #301, .F. ) ;
#8 =( NAMED_UNIT ( * ) PLANE_ANGLE_UNIT ( ) SI_UNIT ( $, .RADIAN. ) );
#9 = DIRECTION ( 'NONE',  ( -0.0000000000000000000, -1.000000000000000000, -0.0000000000000000000 ) ) ;
#10 = PRESENTATION_LAYER_ASSIGNMENT (  '', '', ( #4 ) ) ;
#11 = VECTOR ( 'NONE', #304, 1000.000000000000200 ) ;
#12 = MECHANICAL_DESIGN_GEOMETRIC_PRESENTATION_REPRESENTATION (  '', ( #4 ), #215 ) ;
#13 = ORIENTED_EDGE ( 'NONE', *, *, #295, .T. ) ;
#14 = EDGE_CURVE ( 'NONE', #325, #317, #273, .T. ) ;
#15 = SURFACE_STYLE_USAGE ( .BOTH. , #186 ) ;
#16 = ORIENTED_EDGE ( 'NONE', *, *, #332, .T. ) ;
#17 = AXIS2_PLACEMENT_3D ( 'NONE', #207, #326, #358 ) ;
#18 = ORIENTED_EDGE ( 'NONE', *, *, #233, .F. ) ;
#19 = DIRECTION ( 'NONE',  ( -0.0000000000000000000, -1.000000000000000000, -0.0000000000000000000 ) ) ;
#20 = VECTOR ( 'NONE', #96, 1000.000000000000000 ) ;
#21 = EDGE_LOOP ( 'NONE', ( #50, #284, #159, #353 ) ) ;
#22 = CARTESIAN_POINT ( 'NONE',  ( 0.0000000000000000000, 21.99999999999999600, 0.0000000000000000000 ) ) ;
#23 = AXIS2_PLACEMENT_3D ( 'NONE', #354, #65, #64 ) ;
#24 = ORIENTED_EDGE ( 'NONE', *, *, #72, .F. ) ;
#25 = ORIENTED_EDGE ( 'NONE', *, *, #293, .F. ) ;
#26 = AXIS2_PLACEMENT_3D ( 'NONE', #331, #122, #243 ) ;
#27 = LINE ( 'NONE', #184, #272 ) ;
#28 = VECTOR ( 'NONE', #255, 1000.000000000000000 ) ;
#29 = AXIS2_PLACEMENT_3D ( 'NONE', #214, #308, #44 ) ;
#30 = DIRECTION ( 'NONE',  ( -0.0000000000000000000, -1.000000000000000000, -0.0000000000000000000 ) ) ;
#31 = CARTESIAN_POINT ( 'NONE',  ( 0.0000000000000000000, -1.353190020973723800E-015, -1.649999999999989900 ) ) ;
#32 = EDGE_CURVE ( 'NONE', #43, #307, #262, .T. ) ;
#33 = PRESENTATION_STYLE_ASSIGNMENT (( #15 ) ) ;
#34 = CIRCLE ( 'NONE', #195, 1.649999999999989900 ) ;
#35 = EDGE_LOOP ( 'NONE', ( #299, #91, #218, #242 ) ) ;
#36 = CARTESIAN_POINT ( 'NONE',  ( 7.347880794884118800E-016, 0.0000000000000000000, 5.999999999999998200 ) ) ;
#37 = DIRECTION ( 'NONE',  ( 0.0000000000000000000, 0.0000000000000000000, -1.000000000000000000 ) ) ;
#38 = CARTESIAN_POINT ( 'NONE',  ( 0.0000000000000000000, -2.999999999999999100, -5.999999999999999100 ) ) ;
#39 = EDGE_CURVE ( 'NONE', #247, #116, #120, .T. ) ;
#40 = CIRCLE ( 'NONE', #92, 5.999999999999998200 ) ;
#41 = VECTOR ( 'NONE', #209, 1000.000000000000000 ) ;
#42 = FACE_OUTER_BOUND ( 'NONE', #372, .T. ) ;
#43 = VERTEX_POINT ( 'NONE', #339 ) ;
#44 = DIRECTION ( 'NONE',  ( 0.0000000000000000000, 0.0000000000000000000, 1.000000000000000000 ) ) ;
#45 = DIRECTION ( 'NONE',  ( -1.224646799147353500E-016, 0.0000000000000000000, -1.000000000000000000 ) ) ;
#46 = FILL_AREA_STYLE_COLOUR ( '', #266 ) ;
#47 = CARTESIAN_POINT ( 'NONE',  ( 3.895147499849058600E-016, 27.50000000000000000, 3.180629306801774800 ) ) ;
#48 = FACE_OUTER_BOUND ( 'NONE', #160, .T. ) ;
#49 = AXIS2_PLACEMENT_3D ( 'NONE', #166, #105, #79 ) ;
#50 = ORIENTED_EDGE ( 'NONE', *, *, #301, .T. ) ;
#51 =( GEOMETRIC_REPRESENTATION_CONTEXT ( 3 ) GLOBAL_UNCERTAINTY_ASSIGNED_CONTEXT ( ( #371 ) ) GLOBAL_UNIT_ASSIGNED_CONTEXT ( ( #128, #336, #276 ) ) REPRESENTATION_CONTEXT ( 'NONE', 'WORKASPACE' ) );
#52 = DIRECTION ( 'NONE',  ( -0.0000000000000000000, -1.000000000000000000, -0.0000000000000000000 ) ) ;
#53 = CIRCLE ( 'NONE', #347, 3.642569073057418700 ) ;
#54 = EDGE_LOOP ( 'NONE', ( #165, #241 ) ) ;
#55 = EDGE_CURVE ( 'NONE', #202, #307, #338, .T. ) ;
#56 = EDGE_LOOP ( 'NONE', ( #196, #80, #348, #18 ) ) ;
#57 = PRESENTATION_LAYER_ASSIGNMENT (  '', '', ( #367 ) ) ;
#58 = DIRECTION ( 'NONE',  ( -0.0000000000000000000, -1.000000000000000000, -0.0000000000000000000 ) ) ;
#59 = DIRECTION ( 'NONE',  ( -0.0000000000000000000, -1.000000000000000000, -0.0000000000000000000 ) ) ;
#60 = ORIENTED_EDGE ( 'NONE', *, *, #293, .T. ) ;
#61 = ORIENTED_EDGE ( 'NONE', *, *, #66, .T. ) ;
#62 = EDGE_LOOP ( 'NONE', ( #71, #25, #146, #167 ) ) ;
#63 = CARTESIAN_POINT ( 'NONE',  ( 2.020667218593129100E-016, 15.50000000000000000, 1.649999999999996800 ) ) ;
#64 = DIRECTION ( 'NONE',  ( 0.0000000000000000000, 0.0000000000000000000, -1.000000000000000000 ) ) ;
#65 = DIRECTION ( 'NONE',  ( -0.0000000000000000000, -1.000000000000000000, -0.0000000000000000000 ) ) ;
#66 = EDGE_CURVE ( 'NONE', #257, #116, #125, .T. ) ;
#67 = DIRECTION ( 'NONE',  ( 0.0000000000000000000, 0.0000000000000000000, -1.000000000000000000 ) ) ;
#68 = AXIS2_PLACEMENT_3D ( 'NONE', #22, #58, #369 ) ;
#69 = CYLINDRICAL_SURFACE ( 'NONE', #205, 5.999999999999999100 ) ;
#70 = SURFACE_STYLE_FILL_AREA ( #251 ) ;
#71 = ORIENTED_EDGE ( 'NONE', *, *, #6, .F. ) ;
#72 = EDGE_CURVE ( 'NONE', #202, #76, #190, .T. ) ;
#73 = DIRECTION ( 'NONE',  ( -0.0000000000000000000, -1.000000000000000000, -0.0000000000000000000 ) ) ;
#74 = PRODUCT_DEFINITION ( 'UNKNOWN', '', #113, #172 ) ;
#75 = SURFACE_STYLE_FILL_AREA ( #94 ) ;
#76 = VERTEX_POINT ( 'NONE', #285 ) ;
#77 = DIRECTION ( 'NONE',  ( -0.0000000000000000000, -1.000000000000000000, -0.0000000000000000000 ) ) ;
#78 = DIRECTION ( 'NONE',  ( 0.0000000000000000000, 0.0000000000000000000, -1.000000000000000000 ) ) ;
#79 = DIRECTION ( 'NONE',  ( 0.0000000000000000000, 0.0000000000000000000, -1.000000000000000000 ) ) ;
#80 = ORIENTED_EDGE ( 'NONE', *, *, #72, .T. ) ;
#81 = DIRECTION ( 'NONE',  ( 0.0000000000000000000, 0.0000000000000000000, -1.000000000000000000 ) ) ;
#82 = DIRECTION ( 'NONE',  ( -0.0000000000000000000, -1.000000000000000000, -0.0000000000000000000 ) ) ;
#83 = DIRECTION ( 'NONE',  ( 4.686520405326303500E-017, -0.9238795325112865200, 0.3826834323650902300 ) ) ;
#84 = ADVANCED_FACE ( 'NONE', ( #107 ), #278, .F. ) ;
#85 = CARTESIAN_POINT ( 'NONE',  ( 0.0000000000000000000, 0.0000000000000000000, 0.0000000000000000000 ) ) ;
#86 = LINE ( 'NONE', #274, #11 ) ;
#87 = DIRECTION ( 'NONE',  ( -0.0000000000000000000, -1.000000000000000000, -0.0000000000000000000 ) ) ;
#88 = VERTEX_POINT ( 'NONE', #137 ) ;
#89 = CARTESIAN_POINT ( 'NONE',  ( 4.178004027920983600E-016, 28.00000000000000000, 3.180629306801774800 ) ) ;
#90 = ORIENTED_EDGE ( 'NONE', *, *, #233, .T. ) ;
#91 = ORIENTED_EDGE ( 'NONE', *, *, #6, .T. ) ;
#92 = AXIS2_PLACEMENT_3D ( 'NONE', #318, #232, #200 ) ;
#93 = SURFACE_STYLE_USAGE ( .BOTH. , #322 ) ;
#94 = FILL_AREA_STYLE ('',( #355 ) ) ;
#95 = EDGE_CURVE ( 'NONE', #307, #88, #359, .T. ) ;
#96 = DIRECTION ( 'NONE',  ( -0.0000000000000000000, -1.000000000000000000, -0.0000000000000000000 ) ) ;
#97 = VECTOR ( 'NONE', #148, 1000.000000000000000 ) ;
#98 = PRODUCT_DEFINITION_SHAPE ( 'NONE', 'NONE',  #74 ) ;
#99 = FILL_AREA_STYLE ('',( #46 ) ) ;
#100 =( GEOMETRIC_REPRESENTATION_CONTEXT ( 3 ) GLOBAL_UNCERTAINTY_ASSIGNED_CONTEXT ( ( #361 ) ) GLOBAL_UNIT_ASSIGNED_CONTEXT ( ( #185, #156, #104 ) ) REPRESENTATION_CONTEXT ( 'NONE', 'WORKASPACE' ) );
#101 = CIRCLE ( 'NONE', #370, 1.649999999999989900 ) ;
#102 = APPLICATION_CONTEXT ( 'automotive_design' ) ;
#103 = EDGE_LOOP ( 'NONE', ( #2, #236, #7, #229 ) ) ;
#104 =( NAMED_UNIT ( * ) SI_UNIT ( $, .STERADIAN. ) SOLID_ANGLE_UNIT ( ) );
#105 = DIRECTION ( 'NONE',  ( -0.0000000000000000000, -1.000000000000000000, -0.0000000000000000000 ) ) ;
#106 = DIRECTION ( 'NONE',  ( -0.0000000000000000000, -1.000000000000000000, -0.0000000000000000000 ) ) ;
#107 = FACE_OUTER_BOUND ( 'NONE', #35, .T. ) ;
#108 = AXIS2_PLACEMENT_3D ( 'NONE', #228, #52, #81 ) ;
#109 = ADVANCED_FACE ( 'NONE', ( #42 ), #110, .T. ) ;
#110 = CONICAL_SURFACE ( 'NONE', #68, 6.000000000000000000, 0.3926990816987246400 ) ;
#111 = ORIENTED_EDGE ( 'NONE', *, *, #313, .F. ) ;
#112 = CARTESIAN_POINT ( 'NONE',  ( 2.020667218593122900E-016, -1.353190020973723800E-015, 1.649999999999989900 ) ) ;
#113 = PRODUCT_DEFINITION_FORMATION_WITH_SPECIFIED_SOURCE ( 'ANY', '', #303, .NOT_KNOWN. ) ;
#114 = ADVANCED_FACE ( 'NONE', ( #294 ), #334, .F. ) ;
#115 = CARTESIAN_POINT ( 'NONE',  ( 0.0000000000000000000, 21.99999999999999600, 0.0000000000000000000 ) ) ;
#116 = VERTEX_POINT ( 'NONE', #374 ) ;
#117 = DIRECTION ( 'NONE',  ( 0.0000000000000000000, 0.0000000000000000000, -1.000000000000000000 ) ) ;
#118 = DIRECTION ( 'NONE',  ( 0.0000000000000000000, 0.0000000000000000000, -1.000000000000000000 ) ) ;
#119 = CARTESIAN_POINT ( 'NONE',  ( 0.0000000000000000000, -1.353190020973723800E-015, 0.0000000000000000000 ) ) ;
#120 = CIRCLE ( 'NONE', #291, 1.649999999999996800 ) ;
#121 = STYLED_ITEM ( 'NONE', ( #33 ), #123 ) ;
#122 = DIRECTION ( 'NONE',  ( 0.0000000000000000000, 1.000000000000000000, 0.0000000000000000000 ) ) ;
#123 = ADVANCED_BREP_SHAPE_REPRESENTATION ( '19462~0', ( #306, #265 ), #51 ) ;
#124 = CARTESIAN_POINT ( 'NONE',  ( 0.0000000000000000000, 21.99999999999999600, -6.000000000000000000 ) ) ;
#125 = LINE ( 'NONE', #365, #28 ) ;
#126 =( NAMED_UNIT ( * ) PLANE_ANGLE_UNIT ( ) SI_UNIT ( $, .RADIAN. ) );
#127 = CARTESIAN_POINT ( 'NONE',  ( 0.0000000000000000000, 15.50000000000000000, 0.0000000000000000000 ) ) ;
#128 =( LENGTH_UNIT ( ) NAMED_UNIT ( * ) SI_UNIT ( .MILLI., .METRE. ) );
#129 = TOROIDAL_SURFACE ( 'NONE', #312, 3.180629306801774800, 0.5000000000000004400 ) ;
#130 = EDGE_LOOP ( 'NONE', ( #316, #194, #224 ) ) ;
#131 = DIRECTION ( 'NONE',  ( 0.0000000000000000000, 0.0000000000000000000, -1.000000000000000000 ) ) ;
#132 = CARTESIAN_POINT ( 'NONE',  ( 0.0000000000000000000, 15.50000000000000000, 0.0000000000000000000 ) ) ;
#133 = EDGE_CURVE ( 'NONE', #257, #247, #368, .T. ) ;
#134 = CARTESIAN_POINT ( 'NONE',  ( 0.0000000000000000000, 28.00000000000000000, 0.0000000000000000000 ) ) ;
#135 = CARTESIAN_POINT ( 'NONE',  ( 7.347880794884119700E-016, 21.99999999999999600, 6.000000000000000000 ) ) ;
#136 = ORIENTED_EDGE ( 'NONE', *, *, #133, .F. ) ;
#137 = CARTESIAN_POINT ( 'NONE',  ( 7.347880794884119700E-016, 21.99999999999999600, 6.000000000000000000 ) ) ;
#138 = MECHANICAL_DESIGN_GEOMETRIC_PRESENTATION_REPRESENTATION (  '', ( #344 ), #309 ) ;
#139 =( NAMED_UNIT ( * ) SI_UNIT ( $, .STERADIAN. ) SOLID_ANGLE_UNIT ( ) );
#140 = ADVANCED_FACE ( 'NONE', ( #193 ), #341, .T. ) ;
#141 = ORIENTED_EDGE ( 'NONE', *, *, #14, .T. ) ;
#142 = DIRECTION ( 'NONE',  ( -0.0000000000000000000, -1.000000000000000000, -0.0000000000000000000 ) ) ;
#143 = ADVANCED_FACE ( 'NONE', ( #187 ), #174, .F. ) ;
#144 = FACE_OUTER_BOUND ( 'NONE', #320, .T. ) ;
#145 = AXIS2_PLACEMENT_3D ( 'NONE', #263, #87, #67 ) ;
#146 = ORIENTED_EDGE ( 'NONE', *, *, #203, .T. ) ;
#147 = CARTESIAN_POINT ( 'NONE',  ( 0.0000000000000000000, 27.69134171618254600, 0.0000000000000000000 ) ) ;
#148 = DIRECTION ( 'NONE',  ( -0.0000000000000000000, -1.000000000000000000, -0.0000000000000000000 ) ) ;
#149 =( LENGTH_UNIT ( ) NAMED_UNIT ( * ) SI_UNIT ( .MILLI., .METRE. ) );
#150 = DIRECTION ( 'NONE',  ( 0.0000000000000000000, 0.0000000000000000000, -1.000000000000000000 ) ) ;
#151 = CIRCLE ( 'NONE', #145, 3.180629306801774800 ) ;
#152 = EDGE_LOOP ( 'NONE', ( #356, #279, #212, #268 ) ) ;
#153 = SURFACE_STYLE_USAGE ( .BOTH. , #297 ) ;
#154 = DIRECTION ( 'NONE',  ( 0.0000000000000000000, 0.0000000000000000000, -1.000000000000000000 ) ) ;
#155 = FACE_OUTER_BOUND ( 'NONE', #62, .T. ) ;
#156 =( NAMED_UNIT ( * ) PLANE_ANGLE_UNIT ( ) SI_UNIT ( $, .RADIAN. ) );
#157 = DIRECTION ( 'NONE',  ( 0.0000000000000000000, 0.0000000000000000000, 1.000000000000000000 ) ) ;
#158 = MECHANICAL_DESIGN_GEOMETRIC_PRESENTATION_REPRESENTATION (  '', ( #367 ), #230 ) ;
#159 = ORIENTED_EDGE ( 'NONE', *, *, #14, .F. ) ;
#160 = EDGE_LOOP ( 'NONE', ( #111, #16, #335, #323 ) ) ;
#161 = PRODUCT_CONTEXT ( 'NONE', #188, 'mechanical' ) ;
#162 = DIRECTION ( 'NONE',  ( 0.0000000000000000000, 0.0000000000000000000, -1.000000000000000000 ) ) ;
#163 = DIRECTION ( 'NONE',  ( 1.000000000000000000, 0.0000000000000000000, -1.224646799147353200E-016 ) ) ;
#164 = CIRCLE ( 'NONE', #364, 1.649999999999996800 ) ;
#165 = ORIENTED_EDGE ( 'NONE', *, *, #173, .F. ) ;
#166 = CARTESIAN_POINT ( 'NONE',  ( 0.0000000000000000000, 0.0000000000000000000, 0.0000000000000000000 ) ) ;
#167 = ORIENTED_EDGE ( 'NONE', *, *, #173, .T. ) ;
#168 = EDGE_CURVE ( 'NONE', #170, #183, #101, .T. ) ;
#169 = CARTESIAN_POINT ( 'NONE',  ( 0.0000000000000000000, 15.50000000000000000, 0.0000000000000000000 ) ) ;
#170 = VERTEX_POINT ( 'NONE', #112 ) ;
#171 = DIRECTION ( 'NONE',  ( -0.0000000000000000000, -1.000000000000000000, -0.0000000000000000000 ) ) ;
#172 = PRODUCT_DEFINITION_CONTEXT ( 'detailed design', #102, 'design' ) ;
#173 = EDGE_CURVE ( 'NONE', #183, #170, #34, .T. ) ;
#174 = CONICAL_SURFACE ( 'NONE', #340, 1.649999999999996800, 1.047197551196595000 ) ;
#175 = COLOUR_RGB ( '',1.000000000000000000, 1.000000000000000000, 1.000000000000000000 ) ;
#176 = ADVANCED_FACE ( 'NONE', ( #178 ), #69, .T. ) ;
#177 = AXIS2_PLACEMENT_3D ( 'NONE', #345, #171, #225 ) ;
#178 = FACE_OUTER_BOUND ( 'NONE', #21, .T. ) ;
#179 = FILL_AREA_STYLE ('',( #244 ) ) ;
#180 = CARTESIAN_POINT ( 'NONE',  ( 0.0000000000000000000, 0.0000000000000000000, -5.999999999999998200 ) ) ;
#181 = PLANE ( 'NONE',  #26 ) ;
#182 = CARTESIAN_POINT ( 'NONE',  ( 2.020667218593124900E-016, 0.0000000000000000000, 1.649999999999993500 ) ) ;
#183 = VERTEX_POINT ( 'NONE', #31 ) ;
#184 = CARTESIAN_POINT ( 'NONE',  ( 7.347880794884118800E-016, -2.999999999999999100, 5.999999999999999100 ) ) ;
#185 =( LENGTH_UNIT ( ) NAMED_UNIT ( * ) SI_UNIT ( .MILLI., .METRE. ) );
#186 = SURFACE_SIDE_STYLE ('',( #1 ) ) ;
#187 = FACE_OUTER_BOUND ( 'NONE', #130, .T. ) ;
#188 = APPLICATION_CONTEXT ( 'automotive_design' ) ;
#189 = DIRECTION ( 'NONE',  ( 0.0000000000000000000, 0.0000000000000000000, -1.000000000000000000 ) ) ;
#190 = CIRCLE ( 'NONE', #324, 3.180629306801774800 ) ;
#191 = UNCERTAINTY_MEASURE_WITH_UNIT (LENGTH_MEASURE( 1.000000000000000100E-005 ), #258, 'distance_accuracy_value', 'NONE');
#192 = FILL_AREA_STYLE_COLOUR ( '', #175 ) ;
#193 = FACE_OUTER_BOUND ( 'NONE', #152, .T. ) ;
#194 = ORIENTED_EDGE ( 'NONE', *, *, #133, .T. ) ;
#195 = AXIS2_PLACEMENT_3D ( 'NONE', #197, #59, #118 ) ;
#196 = ORIENTED_EDGE ( 'NONE', *, *, #55, .F. ) ;
#197 = CARTESIAN_POINT ( 'NONE',  ( 0.0000000000000000000, -1.353190020973723800E-015, 0.0000000000000000000 ) ) ;
#198 = PRESENTATION_LAYER_ASSIGNMENT (  '', '', ( #121 ) ) ;
#199 = FACE_OUTER_BOUND ( 'NONE', #56, .T. ) ;
#200 = DIRECTION ( 'NONE',  ( 0.0000000000000000000, 0.0000000000000000000, -1.000000000000000000 ) ) ;
#201 = LINE ( 'NONE', #182, #41 ) ;
#202 = VERTEX_POINT ( 'NONE', #89 ) ;
#203 = EDGE_CURVE ( 'NONE', #116, #183, #351, .T. ) ;
#204 = CARTESIAN_POINT ( 'NONE',  ( 4.460860555992909600E-016, 27.69134171618254600, 3.642569073057418700 ) ) ;
#205 = AXIS2_PLACEMENT_3D ( 'NONE', #350, #237, #234 ) ;
#206 = CIRCLE ( 'NONE', #29, 0.5000000000000004400 ) ;
#207 = CARTESIAN_POINT ( 'NONE',  ( 0.0000000000000000000, -2.999999999999999100, 0.0000000000000000000 ) ) ;
#208 = DIRECTION ( 'NONE',  ( -0.0000000000000000000, -1.000000000000000000, -0.0000000000000000000 ) ) ;
#209 = DIRECTION ( 'NONE',  ( -0.0000000000000000000, -1.000000000000000000, -0.0000000000000000000 ) ) ;
#210 = CARTESIAN_POINT ( 'NONE',  ( 0.0000000000000000000, 27.50000000000000000, 0.0000000000000000000 ) ) ;
#211 = PRESENTATION_STYLE_ASSIGNMENT (( #281 ) ) ;
#212 = ORIENTED_EDGE ( 'NONE', *, *, #32, .F. ) ;
#213 = DIRECTION ( 'NONE',  ( 1.000000000000000000, 0.0000000000000000000, 0.0000000000000000000 ) ) ;
#214 = CARTESIAN_POINT ( 'NONE',  ( 0.0000000000000000000, 27.50000000000000000, -3.180629306801774800 ) ) ;
#215 =( GEOMETRIC_REPRESENTATION_CONTEXT ( 3 ) GLOBAL_UNCERTAINTY_ASSIGNED_CONTEXT ( ( #264 ) ) GLOBAL_UNIT_ASSIGNED_CONTEXT ( ( #149, #126, #245 ) ) REPRESENTATION_CONTEXT ( 'NONE', 'WORKASPACE' ) );
#216 = PRESENTATION_STYLE_ASSIGNMENT (( #153 ) ) ;
#217 = EDGE_CURVE ( 'NONE', #317, #325, #40, .T. ) ;
#218 = ORIENTED_EDGE ( 'NONE', *, *, #168, .T. ) ;
#219 = UNCERTAINTY_MEASURE_WITH_UNIT (LENGTH_MEASURE( 1.000000000000000100E-005 ), #357, 'distance_accuracy_value', 'NONE');
#220 = DIRECTION ( 'NONE',  ( -0.0000000000000000000, -1.000000000000000000, -0.0000000000000000000 ) ) ;
#221 = DIRECTION ( 'NONE',  ( 1.060575238724905200E-016, -0.5000000000000024400, 0.8660254037844372600 ) ) ;
#222 = CYLINDRICAL_SURFACE ( 'NONE', #17, 5.999999999999999100 ) ;
#223 = PRESENTATION_LAYER_ASSIGNMENT (  '', '', ( #344 ) ) ;
#224 = ORIENTED_EDGE ( 'NONE', *, *, #39, .T. ) ;
#225 = DIRECTION ( 'NONE',  ( 0.0000000000000000000, 0.0000000000000000000, -1.000000000000000000 ) ) ;
#226 = CARTESIAN_POINT ( 'NONE',  ( 2.020667218593128800E-016, 15.50000000000000000, 1.649999999999996800 ) ) ;
#227 = AXIS2_PLACEMENT_3D ( 'NONE', #253, #19, #162 ) ;
#228 = CARTESIAN_POINT ( 'NONE',  ( 0.0000000000000000000, 27.50000000000000000, 0.0000000000000000000 ) ) ;
#229 = ORIENTED_EDGE ( 'NONE', *, *, #295, .F. ) ;
#230 =( GEOMETRIC_REPRESENTATION_CONTEXT ( 3 ) GLOBAL_UNCERTAINTY_ASSIGNED_CONTEXT ( ( #219 ) ) GLOBAL_UNIT_ASSIGNED_CONTEXT ( ( #357, #8, #300 ) ) REPRESENTATION_CONTEXT ( 'NONE', 'WORKASPACE' ) );
#231 = ADVANCED_FACE ( 'NONE', ( #246 ), #260, .T. ) ;
#232 = DIRECTION ( 'NONE',  ( -0.0000000000000000000, -1.000000000000000000, -0.0000000000000000000 ) ) ;
#233 = EDGE_CURVE ( 'NONE', #307, #43, #53, .T. ) ;
#234 = DIRECTION ( 'NONE',  ( 0.0000000000000000000, 0.0000000000000000000, -1.000000000000000000 ) ) ;
#235 = CYLINDRICAL_SURFACE ( 'NONE', #239, 1.649999999999993500 ) ;
#236 = ORIENTED_EDGE ( 'NONE', *, *, #95, .T. ) ;
#237 = DIRECTION ( 'NONE',  ( -0.0000000000000000000, -1.000000000000000000, -0.0000000000000000000 ) ) ;
#238 = DIRECTION ( 'NONE',  ( 0.0000000000000000000, 0.0000000000000000000, -1.000000000000000000 ) ) ;
#239 = AXIS2_PLACEMENT_3D ( 'NONE', #240, #208, #154 ) ;
#240 = CARTESIAN_POINT ( 'NONE',  ( 0.0000000000000000000, 0.0000000000000000000, 0.0000000000000000000 ) ) ;
#241 = ORIENTED_EDGE ( 'NONE', *, *, #168, .F. ) ;
#242 = ORIENTED_EDGE ( 'NONE', *, *, #203, .F. ) ;
#243 = DIRECTION ( 'NONE',  ( 0.0000000000000000000, -0.0000000000000000000, 1.000000000000000000 ) ) ;
#244 = FILL_AREA_STYLE_COLOUR ( '', #283 ) ;
#245 =( NAMED_UNIT ( * ) SI_UNIT ( $, .STERADIAN. ) SOLID_ANGLE_UNIT ( ) );
#246 = FACE_OUTER_BOUND ( 'NONE', #103, .T. ) ;
#247 = VERTEX_POINT ( 'NONE', #63 ) ;
#248 = AXIS2_PLACEMENT_3D ( 'NONE', #115, #142, #292 ) ;
#249 = EDGE_CURVE ( 'NONE', #76, #202, #151, .T. ) ;
#250 = CARTESIAN_POINT ( 'NONE',  ( 0.0000000000000000000, 0.0000000000000000000, 0.0000000000000000000 ) ) ;
#251 = FILL_AREA_STYLE ('',( #192 ) ) ;
#252 = EDGE_LOOP ( 'NONE', ( #141, #343 ) ) ;
#253 = CARTESIAN_POINT ( 'NONE',  ( 0.0000000000000000000, 0.0000000000000000000, 0.0000000000000000000 ) ) ;
#254 = EDGE_LOOP ( 'NONE', ( #136, #61, #60 ) ) ;
#255 = DIRECTION ( 'NONE',  ( 0.0000000000000000000, -0.5000000000000024400, -0.8660254037844372600 ) ) ;
#256 = ORIENTED_EDGE ( 'NONE', *, *, #249, .F. ) ;
#257 = VERTEX_POINT ( 'NONE', #5 ) ;
#258 =( LENGTH_UNIT ( ) NAMED_UNIT ( * ) SI_UNIT ( .MILLI., .METRE. ) );
#259 = ADVANCED_FACE ( 'NONE', ( #337, #363 ), #261, .T. ) ;
#260 = CONICAL_SURFACE ( 'NONE', #248, 6.000000000000000000, 0.3926990816987246400 ) ;
#261 = PLANE ( 'NONE',  #360 ) ;
#262 = CIRCLE ( 'NONE', #269, 3.642569073057418700 ) ;
#263 = CARTESIAN_POINT ( 'NONE',  ( 0.0000000000000000000, 28.00000000000000000, 0.0000000000000000000 ) ) ;
#264 = UNCERTAINTY_MEASURE_WITH_UNIT (LENGTH_MEASURE( 1.000000000000000100E-005 ), #149, 'distance_accuracy_value', 'NONE');
#265 = AXIS2_PLACEMENT_3D ( 'NONE', #250, #157, #213 ) ;
#266 = COLOUR_RGB ( '',1.000000000000000000, 1.000000000000000000, 1.000000000000000000 ) ;
#267 = VECTOR ( 'NONE', #221, 1000.000000000000000 ) ;
#268 = ORIENTED_EDGE ( 'NONE', *, *, #375, .F. ) ;
#269 = AXIS2_PLACEMENT_3D ( 'NONE', #314, #106, #189 ) ;
#270 = DIRECTION ( 'NONE',  ( -0.0000000000000000000, -1.000000000000000000, -0.0000000000000000000 ) ) ;
#271 = DIRECTION ( 'NONE',  ( 0.0000000000000000000, -1.000000000000000000, -0.0000000000000000000 ) ) ;
#272 = VECTOR ( 'NONE', #302, 1000.000000000000000 ) ;
#273 = CIRCLE ( 'NONE', #227, 5.999999999999998200 ) ;
#274 = CARTESIAN_POINT ( 'NONE',  ( 0.0000000000000000000, 21.99999999999999600, -6.000000000000000000 ) ) ;
#275 = EDGE_CURVE ( 'NONE', #296, #325, #277, .T. ) ;
#276 =( NAMED_UNIT ( * ) SI_UNIT ( $, .STERADIAN. ) SOLID_ANGLE_UNIT ( ) );
#277 = LINE ( 'NONE', #38, #20 ) ;
#278 = CYLINDRICAL_SURFACE ( 'NONE', #49, 1.649999999999993500 ) ;
#279 = ORIENTED_EDGE ( 'NONE', *, *, #55, .T. ) ;
#280 = SHAPE_DEFINITION_REPRESENTATION ( #98, #123 ) ;
#281 = SURFACE_STYLE_USAGE ( .BOTH. , #366 ) ;
#282 = APPLICATION_PROTOCOL_DEFINITION ( 'draft international standard', 'automotive_design', 1998, #102 ) ;
#283 = COLOUR_RGB ( '',1.000000000000000000, 1.000000000000000000, 1.000000000000000000 ) ;
#284 = ORIENTED_EDGE ( 'NONE', *, *, #313, .T. ) ;
#285 = CARTESIAN_POINT ( 'NONE',  ( 0.0000000000000000000, 28.00000000000000000, -3.180629306801774800 ) ) ;
#286 = CIRCLE ( 'NONE', #23, 6.000000000000000000 ) ;
#287 = PRODUCT_RELATED_PRODUCT_CATEGORY ( 'part', '', ( #303 ) ) ;
#288 = ORIENTED_EDGE ( 'NONE', *, *, #95, .F. ) ;
#289 = CLOSED_SHELL ( 'NONE', ( #143, #84, #176, #231, #140, #319, #373, #109, #346, #259, #342, #114 ) ) ;
#290 = DIRECTION ( 'NONE',  ( 0.0000000000000000000, 0.0000000000000000000, -1.000000000000000000 ) ) ;
#291 = AXIS2_PLACEMENT_3D ( 'NONE', #132, #77, #362 ) ;
#292 = DIRECTION ( 'NONE',  ( 0.0000000000000000000, 0.0000000000000000000, -1.000000000000000000 ) ) ;
#293 = EDGE_CURVE ( 'NONE', #116, #247, #164, .T. ) ;
#294 = FACE_OUTER_BOUND ( 'NONE', #254, .T. ) ;
#295 = EDGE_CURVE ( 'NONE', #43, #296, #86, .T. ) ;
#296 = VERTEX_POINT ( 'NONE', #124 ) ;
#297 = SURFACE_SIDE_STYLE ('',( #311 ) ) ;
#298 = COLOUR_RGB ( '',1.000000000000000000, 1.000000000000000000, 1.000000000000000000 ) ;
#299 = ORIENTED_EDGE ( 'NONE', *, *, #39, .F. ) ;
#300 =( NAMED_UNIT ( * ) SI_UNIT ( $, .STERADIAN. ) SOLID_ANGLE_UNIT ( ) );
#301 = EDGE_CURVE ( 'NONE', #296, #88, #329, .T. ) ;
#302 = DIRECTION ( 'NONE',  ( -0.0000000000000000000, -1.000000000000000000, -0.0000000000000000000 ) ) ;
#303 = PRODUCT ( '19462~0', '19462~0', '', ( #161 ) ) ;
#304 = DIRECTION ( 'NONE',  ( 0.0000000000000000000, -0.9238795325112865200, -0.3826834323650902300 ) ) ;
#305 = PRESENTATION_STYLE_ASSIGNMENT (( #93 ) ) ;
#306 = MANIFOLD_SOLID_BREP ( 'M4x0.7 Gewindekernloch1', #289 ) ;
#307 = VERTEX_POINT ( 'NONE', #204 ) ;
#308 = DIRECTION ( 'NONE',  ( -1.000000000000000000, 0.0000000000000000000, 0.0000000000000000000 ) ) ;
#309 =( GEOMETRIC_REPRESENTATION_CONTEXT ( 3 ) GLOBAL_UNCERTAINTY_ASSIGNED_CONTEXT ( ( #191 ) ) GLOBAL_UNIT_ASSIGNED_CONTEXT ( ( #258, #315, #139 ) ) REPRESENTATION_CONTEXT ( 'NONE', 'WORKASPACE' ) );
#310 = AXIS2_PLACEMENT_3D ( 'NONE', #47, #163, #45 ) ;
#311 = SURFACE_STYLE_FILL_AREA ( #179 ) ;
#312 = AXIS2_PLACEMENT_3D ( 'NONE', #210, #73, #131 ) ;
#313 = EDGE_CURVE ( 'NONE', #88, #317, #27, .T. ) ;
#314 = CARTESIAN_POINT ( 'NONE',  ( 0.0000000000000000000, 27.69134171618254600, 0.0000000000000000000 ) ) ;
#315 =( NAMED_UNIT ( * ) PLANE_ANGLE_UNIT ( ) SI_UNIT ( $, .RADIAN. ) );
#316 = ORIENTED_EDGE ( 'NONE', *, *, #66, .F. ) ;
#317 = VERTEX_POINT ( 'NONE', #36 ) ;
#318 = CARTESIAN_POINT ( 'NONE',  ( 0.0000000000000000000, 0.0000000000000000000, 0.0000000000000000000 ) ) ;
#319 = ADVANCED_FACE ( 'NONE', ( #144 ), #181, .T. ) ;
#320 = EDGE_LOOP ( 'NONE', ( #256, #24 ) ) ;
#321 = AXIS2_PLACEMENT_3D ( 'NONE', #328, #9, #238 ) ;
#322 = SURFACE_SIDE_STYLE ('',( #75 ) ) ;
#323 = ORIENTED_EDGE ( 'NONE', *, *, #217, .F. ) ;
#324 = AXIS2_PLACEMENT_3D ( 'NONE', #134, #220, #78 ) ;
#325 = VERTEX_POINT ( 'NONE', #180 ) ;
#326 = DIRECTION ( 'NONE',  ( -0.0000000000000000000, -1.000000000000000000, -0.0000000000000000000 ) ) ;
#327 = MECHANICAL_DESIGN_GEOMETRIC_PRESENTATION_REPRESENTATION (  '', ( #121 ), #100 ) ;
#328 = CARTESIAN_POINT ( 'NONE',  ( 0.0000000000000000000, 21.99999999999999600, 0.0000000000000000000 ) ) ;
#329 = CIRCLE ( 'NONE', #321, 6.000000000000000000 ) ;
#330 = ORIENTED_EDGE ( 'NONE', *, *, #332, .F. ) ;
#331 = CARTESIAN_POINT ( 'NONE',  ( 3.180629306801774800, 28.00000000000000000, 0.0000000000000000000 ) ) ;
#332 = EDGE_CURVE ( 'NONE', #88, #296, #286, .T. ) ;
#333 = APPLICATION_PROTOCOL_DEFINITION ( 'draft international standard', 'automotive_design', 1998, #188 ) ;
#334 = CONICAL_SURFACE ( 'NONE', #177, 1.649999999999996800, 1.047197551196595000 ) ;
#335 = ORIENTED_EDGE ( 'NONE', *, *, #275, .T. ) ;
#336 =( NAMED_UNIT ( * ) PLANE_ANGLE_UNIT ( ) SI_UNIT ( $, .RADIAN. ) );
#337 = FACE_BOUND ( 'NONE', #54, .T. ) ;
#338 = CIRCLE ( 'NONE', #310, 0.5000000000000004400 ) ;
#339 = CARTESIAN_POINT ( 'NONE',  ( 0.0000000000000000000, 27.69134171618254600, -3.642569073057418700 ) ) ;
#340 = AXIS2_PLACEMENT_3D ( 'NONE', #169, #82, #290 ) ;
#341 = TOROIDAL_SURFACE ( 'NONE', #108, 3.180629306801774800, 0.5000000000000004400 ) ;
#342 = ADVANCED_FACE ( 'NONE', ( #155 ), #235, .F. ) ;
#343 = ORIENTED_EDGE ( 'NONE', *, *, #217, .T. ) ;
#344 = STYLED_ITEM ( 'NONE', ( #211 ), #84 ) ;
#345 = CARTESIAN_POINT ( 'NONE',  ( 0.0000000000000000000, 15.50000000000000000, 0.0000000000000000000 ) ) ;
#346 = ADVANCED_FACE ( 'NONE', ( #48 ), #222, .T. ) ;
#347 = AXIS2_PLACEMENT_3D ( 'NONE', #147, #376, #3 ) ;
#348 = ORIENTED_EDGE ( 'NONE', *, *, #375, .T. ) ;
#349 = CARTESIAN_POINT ( 'NONE',  ( 0.0000000000000000000, 0.0000000000000000000, -1.649999999999993500 ) ) ;
#350 = CARTESIAN_POINT ( 'NONE',  ( 0.0000000000000000000, -2.999999999999999100, 0.0000000000000000000 ) ) ;
#351 = LINE ( 'NONE', #349, #97 ) ;
#352 = VECTOR ( 'NONE', #83, 1000.000000000000200 ) ;
#353 = ORIENTED_EDGE ( 'NONE', *, *, #275, .F. ) ;
#354 = CARTESIAN_POINT ( 'NONE',  ( 0.0000000000000000000, 21.99999999999999600, 0.0000000000000000000 ) ) ;
#355 = FILL_AREA_STYLE_COLOUR ( '', #298 ) ;
#356 = ORIENTED_EDGE ( 'NONE', *, *, #249, .T. ) ;
#357 =( LENGTH_UNIT ( ) NAMED_UNIT ( * ) SI_UNIT ( .MILLI., .METRE. ) );
#358 = DIRECTION ( 'NONE',  ( 0.0000000000000000000, 0.0000000000000000000, -1.000000000000000000 ) ) ;
#359 = LINE ( 'NONE', #135, #352 ) ;
#360 = AXIS2_PLACEMENT_3D ( 'NONE', #85, #271, #150 ) ;
#361 = UNCERTAINTY_MEASURE_WITH_UNIT (LENGTH_MEASURE( 1.000000000000000100E-005 ), #185, 'distance_accuracy_value', 'NONE');
#362 = DIRECTION ( 'NONE',  ( 0.0000000000000000000, 0.0000000000000000000, -1.000000000000000000 ) ) ;
#363 = FACE_OUTER_BOUND ( 'NONE', #252, .T. ) ;
#364 = AXIS2_PLACEMENT_3D ( 'NONE', #127, #270, #37 ) ;
#365 = CARTESIAN_POINT ( 'NONE',  ( 0.0000000000000000000, 15.50000000000000000, -1.649999999999996800 ) ) ;
#366 = SURFACE_SIDE_STYLE ('',( #70 ) ) ;
#367 = STYLED_ITEM ( 'NONE', ( #216 ), #342 ) ;
#368 = LINE ( 'NONE', #226, #267 ) ;
#369 = DIRECTION ( 'NONE',  ( 0.0000000000000000000, 0.0000000000000000000, -1.000000000000000000 ) ) ;
#370 = AXIS2_PLACEMENT_3D ( 'NONE', #119, #30, #117 ) ;
#371 = UNCERTAINTY_MEASURE_WITH_UNIT (LENGTH_MEASURE( 1.000000000000000100E-005 ), #128, 'distance_accuracy_value', 'NONE');
#372 = EDGE_LOOP ( 'NONE', ( #288, #90, #13, #330 ) ) ;
#373 = ADVANCED_FACE ( 'NONE', ( #199 ), #129, .T. ) ;
#374 = CARTESIAN_POINT ( 'NONE',  ( 0.0000000000000000000, 15.50000000000000000, -1.649999999999996800 ) ) ;
#375 = EDGE_CURVE ( 'NONE', #76, #43, #206, .T. ) ;
#376 = DIRECTION ( 'NONE',  ( -0.0000000000000000000, -1.000000000000000000, -0.0000000000000000000 ) ) ;
ENDSEC;
END-ISO-10303-21;
