ISO-10303-21;
HEADER;
FILE_DESCRIPTION (( 'STEP AP214' ),
    '1' );
FILE_NAME ('INGUN_19315.STEP',
    '2024-07-22T12:25:49',
    ( '' ),
    ( '' ),
    'SwSTEP 2.0',
    'SolidWorks 2021',
    '' );
FILE_SCHEMA (( 'AUTOMOTIVE_DESIGN' ));
ENDSEC;

DATA;
#1 = EDGE_CURVE ( 'NONE', #242, #290, #133, .T. ) ;
#2 = CYLINDRICAL_SURFACE ( 'NONE', #221, 1.450000000000000400 ) ;
#3 = LINE ( 'NONE', #6, #39 ) ;
#4 = FACE_OUTER_BOUND ( 'NONE', #109, .T. ) ;
#5 = VERTEX_POINT ( 'NONE', #369 ) ;
#6 = CARTESIAN_POINT ( 'NONE',  ( 0.000000000000000000, -62.00000000000000000, -1.999999999999999112 ) ) ;
#7 = DIRECTION ( 'NONE',  ( 0.000000000000000000, 0.000000000000000000, -1.000000000000000000 ) ) ;
#8 = CARTESIAN_POINT ( 'NONE',  ( 0.000000000000000000, 0.000000000000000000, 0.000000000000000000 ) ) ;
#9 = CARTESIAN_POINT ( 'NONE',  ( 0.000000000000000000, 0.000000000000000000, 0.000000000000000000 ) ) ;
#10 = VECTOR ( 'NONE', #354, 1000.000000000000000 ) ;
#11 = ORIENTED_EDGE ( 'NONE', *, *, #27, .F. ) ;
#12 = AXIS2_PLACEMENT_3D ( 'NONE', #84, #293, #263 ) ;
#13 = AXIS2_PLACEMENT_3D ( 'NONE', #182, #148, #37 ) ;
#14 = DIRECTION ( 'NONE',  ( -0.000000000000000000, 1.000000000000000000, -0.000000000000000000 ) ) ;
#15 = CARTESIAN_POINT ( 'NONE',  ( 0.000000000000000000, -11.99999999999999645, 1.999999999999997335 ) ) ;
#16 = CARTESIAN_POINT ( 'NONE',  ( 3.061616997868382155E-16, -11.99999999999999645, -1.999999999999997335 ) ) ;
#17 = FILL_AREA_STYLE_COLOUR ( '', #54 ) ;
#18 = PRESENTATION_LAYER_ASSIGNMENT (  '', '', ( #222 ) ) ;
#19 = PRESENTATION_STYLE_ASSIGNMENT (( #166 ) ) ;
#20 = SHAPE_DEFINITION_REPRESENTATION ( #28, #349 ) ;
#21 = LINE ( 'NONE', #178, #307 ) ;
#22 = EDGE_CURVE ( 'NONE', #203, #264, #189, .T. ) ;
#23 = ORIENTED_EDGE ( 'NONE', *, *, #22, .F. ) ;
#24 = AXIS2_PLACEMENT_3D ( 'NONE', #210, #258, #194 ) ;
#25 = DIRECTION ( 'NONE',  ( -0.000000000000000000, -1.000000000000000000, -0.000000000000000000 ) ) ;
#26 = AXIS2_PLACEMENT_3D ( 'NONE', #34, #64, #31 ) ;
#27 = EDGE_CURVE ( 'NONE', #5, #173, #21, .T. ) ;
#28 = PRODUCT_DEFINITION_SHAPE ( 'NONE', 'NONE',  #332 ) ;
#29 = DIRECTION ( 'NONE',  ( 0.000000000000000000, 0.000000000000000000, 1.000000000000000000 ) ) ;
#30 = DIRECTION ( 'NONE',  ( 0.000000000000000000, 0.7071067811865469066, 0.7071067811865482389 ) ) ;
#31 = DIRECTION ( 'NONE',  ( 0.000000000000000000, 0.000000000000000000, -1.000000000000000000 ) ) ;
#32 = ORIENTED_EDGE ( 'NONE', *, *, #97, .T. ) ;
#33 = FACE_OUTER_BOUND ( 'NONE', #270, .T. ) ;
#34 = CARTESIAN_POINT ( 'NONE',  ( 0.000000000000000000, -62.00000000000000000, 0.000000000000000000 ) ) ;
#35 = ORIENTED_EDGE ( 'NONE', *, *, #55, .T. ) ;
#36 = LINE ( 'NONE', #337, #285 ) ;
#37 = DIRECTION ( 'NONE',  ( 0.000000000000000000, 0.000000000000000000, 1.000000000000000000 ) ) ;
#38 = EDGE_LOOP ( 'NONE', ( #367, #187 ) ) ;
#39 = VECTOR ( 'NONE', #91, 1000.000000000000000 ) ;
#40 = ADVANCED_FACE ( 'NONE', ( #289 ), #2, .F. ) ;
#41 = AXIS2_PLACEMENT_3D ( 'NONE', #151, #294, #7 ) ;
#42 = DIRECTION ( 'NONE',  ( -0.000000000000000000, -1.000000000000000000, -0.000000000000000000 ) ) ;
#43 = VERTEX_POINT ( 'NONE', #85 ) ;
#44 = EDGE_CURVE ( 'NONE', #193, #230, #324, .T. ) ;
#45 = APPLICATION_PROTOCOL_DEFINITION ( 'draft international standard', 'automotive_design', 1998, #336 ) ;
#46 = PRODUCT_DEFINITION_FORMATION_WITH_SPECIFIED_SOURCE ( 'ANY', '', #175, .NOT_KNOWN. ) ;
#47 = DIRECTION ( 'NONE',  ( 0.000000000000000000, -0.000000000000000000, 1.000000000000000000 ) ) ;
#48 = PLANE ( 'NONE',  #243 ) ;
#49 = DIRECTION ( 'NONE',  ( 0.000000000000000000, 0.000000000000000000, -1.000000000000000000 ) ) ;
#50 = FILL_AREA_STYLE ('',( #138 ) ) ;
#51 = DIRECTION ( 'NONE',  ( 0.000000000000000000, 0.000000000000000000, -1.000000000000000000 ) ) ;
#52 = ORIENTED_EDGE ( 'NONE', *, *, #260, .T. ) ;
#53 = AXIS2_PLACEMENT_3D ( 'NONE', #306, #59, #29 ) ;
#54 = COLOUR_RGB ( '',0.7960784313725489669, 0.8235294117647058432, 0.9372549019607843146 ) ;
#55 = EDGE_CURVE ( 'NONE', #173, #43, #225, .T. ) ;
#56 = CARTESIAN_POINT ( 'NONE',  ( 0.000000000000000000, -62.00000000000000000, 0.000000000000000000 ) ) ;
#57 = AXIS2_PLACEMENT_3D ( 'NONE', #274, #14, #309 ) ;
#58 =( LENGTH_UNIT ( ) NAMED_UNIT ( * ) SI_UNIT ( .MILLI., .METRE. ) );
#59 = DIRECTION ( 'NONE',  ( -0.000000000000000000, 1.000000000000000000, -0.000000000000000000 ) ) ;
#60 = DIRECTION ( 'NONE',  ( 0.000000000000000000, 0.000000000000000000, 1.000000000000000000 ) ) ;
#61 = AXIS2_PLACEMENT_3D ( 'NONE', #9, #317, #117 ) ;
#62 = LINE ( 'NONE', #348, #158 ) ;
#63 = CARTESIAN_POINT ( 'NONE',  ( 0.000000000000000000, 0.000000000000000000, 1.950000000000001732 ) ) ;
#64 = DIRECTION ( 'NONE',  ( -0.000000000000000000, -1.000000000000000000, -0.000000000000000000 ) ) ;
#65 = VERTEX_POINT ( 'NONE', #89 ) ;
#66 = MANIFOLD_SOLID_BREP ( 'Fase1', #269 ) ;
#67 = LINE ( 'NONE', #181, #88 ) ;
#68 = ORIENTED_EDGE ( 'NONE', *, *, #297, .F. ) ;
#69 = ORIENTED_EDGE ( 'NONE', *, *, #277, .F. ) ;
#70 = EDGE_CURVE ( 'NONE', #242, #321, #62, .T. ) ;
#71 = ORIENTED_EDGE ( 'NONE', *, *, #70, .T. ) ;
#72 = DIRECTION ( 'NONE',  ( 0.000000000000000000, 0.000000000000000000, -1.000000000000000000 ) ) ;
#73 = AXIS2_PLACEMENT_3D ( 'NONE', #300, #357, #72 ) ;
#74 = FILL_AREA_STYLE ('',( #17 ) ) ;
#75 = ORIENTED_EDGE ( 'NONE', *, *, #197, .F. ) ;
#76 = CIRCLE ( 'NONE', #126, 3.000000000000000888 ) ;
#77 = CARTESIAN_POINT ( 'NONE',  ( 1.450000000000000400, 0.000000000000000000, 0.000000000000000000 ) ) ;
#78 = ORIENTED_EDGE ( 'NONE', *, *, #277, .T. ) ;
#79 = PRESENTATION_STYLE_ASSIGNMENT (( #255 ) ) ;
#80 = PRODUCT_CONTEXT ( 'NONE', #336, 'mechanical' ) ;
#81 = ORIENTED_EDGE ( 'NONE', *, *, #177, .F. ) ;
#82 = DIRECTION ( 'NONE',  ( 0.000000000000000000, 0.000000000000000000, -1.000000000000000000 ) ) ;
#83 = ORIENTED_EDGE ( 'NONE', *, *, #272, .T. ) ;
#84 = CARTESIAN_POINT ( 'NONE',  ( 0.000000000000000000, 0.000000000000000000, 0.000000000000000000 ) ) ;
#85 = CARTESIAN_POINT ( 'NONE',  ( 3.673940397442061347E-16, -5.500000000000005329, 3.000000000000001332 ) ) ;
#86 = AXIS2_PLACEMENT_3D ( 'NONE', #219, #275, #129 ) ;
#87 = DIRECTION ( 'NONE',  ( 0.000000000000000000, 0.000000000000000000, -1.000000000000000000 ) ) ;
#88 = VECTOR ( 'NONE', #96, 999.9999999999998863 ) ;
#89 = CARTESIAN_POINT ( 'NONE',  ( 0.000000000000000000, -19.99999999999999645, -2.000000000000000888 ) ) ;
#90 = ORIENTED_EDGE ( 'NONE', *, *, #135, .T. ) ;
#91 = DIRECTION ( 'NONE',  ( -0.000000000000000000, -1.000000000000000000, -0.000000000000000000 ) ) ;
#92 = CYLINDRICAL_SURFACE ( 'NONE', #24, 1.999999999999999112 ) ;
#93 = DIRECTION ( 'NONE',  ( -0.000000000000000000, -1.000000000000000000, -0.000000000000000000 ) ) ;
#94 = EDGE_CURVE ( 'NONE', #290, #242, #256, .T. ) ;
#95 = FACE_OUTER_BOUND ( 'NONE', #231, .T. ) ;
#96 = DIRECTION ( 'NONE',  ( 8.659560562354941486E-17, 0.7071067811865469066, -0.7071067811865482389 ) ) ;
#97 = EDGE_CURVE ( 'NONE', #5, #215, #261, .T. ) ;
#98 = ADVANCED_FACE ( 'NONE', ( #121 ), #180, .T. ) ;
#99 = UNCERTAINTY_MEASURE_WITH_UNIT (LENGTH_MEASURE( 1.000000000000000082E-05 ), #58, 'distance_accuracy_value', 'NONE');
#100 = ADVANCED_FACE ( 'NONE', ( #95 ), #174, .F. ) ;
#101 = ORIENTED_EDGE ( 'NONE', *, *, #140, .T. ) ;
#102 = DIRECTION ( 'NONE',  ( 0.000000000000000000, 0.9883716976506170537, 0.1520571842539418239 ) ) ;
#103 = FACE_BOUND ( 'NONE', #169, .T. ) ;
#104 = CARTESIAN_POINT ( 'NONE',  ( 2.449293598294707893E-16, -19.99999999999999645, 2.000000000000000888 ) ) ;
#105 =( GEOMETRIC_REPRESENTATION_CONTEXT ( 3 ) GLOBAL_UNCERTAINTY_ASSIGNED_CONTEXT ( ( #99 ) ) GLOBAL_UNIT_ASSIGNED_CONTEXT ( ( #58, #368, #172 ) ) REPRESENTATION_CONTEXT ( 'NONE', 'WORKASPACE' ) );
#106 = CARTESIAN_POINT ( 'NONE',  ( 4.898425415289509033E-16, -4.000000000000000000, 0.000000000000000000 ) ) ;
#107 = DIRECTION ( 'NONE',  ( 0.000000000000000000, -0.000000000000000000, 1.000000000000000000 ) ) ;
#108 = EDGE_CURVE ( 'NONE', #321, #65, #128, .T. ) ;
#109 = EDGE_LOOP ( 'NONE', ( #282, #353, #139, #298 ) ) ;
#110 = ADVANCED_FACE ( 'NONE', ( #4 ), #226, .F. ) ;
#111 = SURFACE_STYLE_FILL_AREA ( #50 ) ;
#112 = ORIENTED_EDGE ( 'NONE', *, *, #22, .T. ) ;
#113 = DIRECTION ( 'NONE',  ( 0.000000000000000000, 0.000000000000000000, -1.000000000000000000 ) ) ;
#114 = FACE_OUTER_BOUND ( 'NONE', #245, .T. ) ;
#115 = CARTESIAN_POINT ( 'NONE',  ( 0.000000000000000000, -5.500000000000005329, 0.000000000000000000 ) ) ;
#116 = CARTESIAN_POINT ( 'NONE',  ( 0.000000000000000000, -62.00000000000000000, 0.000000000000000000 ) ) ;
#117 = DIRECTION ( 'NONE',  ( 0.000000000000000000, 0.000000000000000000, 1.000000000000000000 ) ) ;
#118 = ORIENTED_EDGE ( 'NONE', *, *, #328, .T. ) ;
#119 = APPLICATION_CONTEXT ( 'automotive_design' ) ;
#120 = FACE_OUTER_BOUND ( 'NONE', #344, .T. ) ;
#121 = FACE_OUTER_BOUND ( 'NONE', #262, .T. ) ;
#122 = ORIENTED_EDGE ( 'NONE', *, *, #108, .T. ) ;
#123 = DIRECTION ( 'NONE',  ( -0.000000000000000000, -1.000000000000000000, -0.000000000000000000 ) ) ;
#124 =( GEOMETRIC_REPRESENTATION_CONTEXT ( 3 ) GLOBAL_UNCERTAINTY_ASSIGNED_CONTEXT ( ( #228 ) ) GLOBAL_UNIT_ASSIGNED_CONTEXT ( ( #188, #136, #301 ) ) REPRESENTATION_CONTEXT ( 'NONE', 'WORKASPACE' ) );
#125 = ADVANCED_FACE ( 'NONE', ( #237 ), #92, .T. ) ;
#126 = AXIS2_PLACEMENT_3D ( 'NONE', #152, #202, #87 ) ;
#127 = ORIENTED_EDGE ( 'NONE', *, *, #217, .T. ) ;
#128 = CIRCLE ( 'NONE', #246, 2.000000000000000888 ) ;
#129 = DIRECTION ( 'NONE',  ( 0.000000000000000000, 0.000000000000000000, -1.000000000000000000 ) ) ;
#130 = EDGE_LOOP ( 'NONE', ( #69, #339, #52, #112 ) ) ;
#131 = FACE_OUTER_BOUND ( 'NONE', #38, .T. ) ;
#132 = DIRECTION ( 'NONE',  ( 0.000000000000000000, 1.000000000000000000, 0.000000000000000000 ) ) ;
#133 = CIRCLE ( 'NONE', #338, 1.999999999999997335 ) ;
#134 = SURFACE_STYLE_FILL_AREA ( #74 ) ;
#135 = EDGE_CURVE ( 'NONE', #290, #65, #3, .T. ) ;
#136 =( NAMED_UNIT ( * ) PLANE_ANGLE_UNIT ( ) SI_UNIT ( $, .RADIAN. ) );
#137 = AXIS2_PLACEMENT_3D ( 'NONE', #106, #132, #107 ) ;
#138 = FILL_AREA_STYLE_COLOUR ( '', #287 ) ;
#139 = ORIENTED_EDGE ( 'NONE', *, *, #217, .F. ) ;
#140 = EDGE_CURVE ( 'NONE', #230, #157, #147, .T. ) ;
#141 = ORIENTED_EDGE ( 'NONE', *, *, #44, .T. ) ;
#142 = AXIS2_PLACEMENT_3D ( 'NONE', #116, #212, #183 ) ;
#143 = EDGE_LOOP ( 'NONE', ( #288, #71, #154, #296 ) ) ;
#144 = AXIS2_PLACEMENT_3D ( 'NONE', #213, #240, #292 ) ;
#145 = FACE_OUTER_BOUND ( 'NONE', #146, .T. ) ;
#146 = EDGE_LOOP ( 'NONE', ( #211, #201, #220, #185 ) ) ;
#147 = LINE ( 'NONE', #232, #342 ) ;
#148 = DIRECTION ( 'NONE',  ( -0.000000000000000000, 1.000000000000000000, -0.000000000000000000 ) ) ;
#149 = ORIENTED_EDGE ( 'NONE', *, *, #260, .F. ) ;
#150 = ADVANCED_FACE ( 'NONE', ( #120 ), #319, .T. ) ;
#151 = CARTESIAN_POINT ( 'NONE',  ( 0.000000000000000000, -11.99999999999999645, 0.000000000000000000 ) ) ;
#152 = CARTESIAN_POINT ( 'NONE',  ( 0.000000000000000000, -5.500000000000005329, 0.000000000000000000 ) ) ;
#153 = ADVANCED_FACE ( 'NONE', ( #265 ), #271, .T. ) ;
#154 = ORIENTED_EDGE ( 'NONE', *, *, #160, .F. ) ;
#155 = CIRCLE ( 'NONE', #253, 1.450000000000000400 ) ;
#156 = CIRCLE ( 'NONE', #57, 1.450000000000000400 ) ;
#157 = VERTEX_POINT ( 'NONE', #63 ) ;
#158 = VECTOR ( 'NONE', #352, 1000.000000000000000 ) ;
#159 = DIRECTION ( 'NONE',  ( 0.000000000000000000, 0.000000000000000000, 1.000000000000000000 ) ) ;
#160 = EDGE_CURVE ( 'NONE', #65, #321, #361, .T. ) ;
#161 = LINE ( 'NONE', #15, #310 ) ;
#162 = PLANE ( 'NONE',  #186 ) ;
#163 = ADVANCED_FACE ( 'NONE', ( #33 ), #295, .T. ) ;
#164 = CARTESIAN_POINT ( 'NONE',  ( 2.000000000000000888, -19.99999999999999645, 0.000000000000000000 ) ) ;
#165 = CARTESIAN_POINT ( 'NONE',  ( 2.449293598294703456E-16, -11.99999999999999645, -1.999999999999997335 ) ) ;
#166 = SURFACE_STYLE_USAGE ( .BOTH. , #365 ) ;
#167 =( NAMED_UNIT ( * ) PLANE_ANGLE_UNIT ( ) SI_UNIT ( $, .RADIAN. ) );
#168 = VECTOR ( 'NONE', #302, 1000.000000000000000 ) ;
#169 = EDGE_LOOP ( 'NONE', ( #127, #196 ) ) ;
#170 = AXIS2_PLACEMENT_3D ( 'NONE', #179, #347, #291 ) ;
#171 = CARTESIAN_POINT ( 'NONE',  ( 0.000000000000000000, -11.99999999999999645, 1.999999999999997335 ) ) ;
#172 =( NAMED_UNIT ( * ) SI_UNIT ( $, .STERADIAN. ) SOLID_ANGLE_UNIT ( ) );
#173 = VERTEX_POINT ( 'NONE', #205 ) ;
#174 = CONICAL_SURFACE ( 'NONE', #13, 1.950000000000001732, 0.7853981633974491672 ) ;
#175 = PRODUCT ( 'INGUN_19315', 'INGUN_19315', '', ( #80 ) ) ;
#176 = PLANE ( 'NONE',  #137 ) ;
#177 = EDGE_CURVE ( 'NONE', #193, #299, #67, .T. ) ;
#178 = CARTESIAN_POINT ( 'NONE',  ( 0.000000000000000000, -62.00000000000000000, -3.000000000000000444 ) ) ;
#179 = CARTESIAN_POINT ( 'NONE',  ( 0.000000000000000000, -19.99999999999999645, 0.000000000000000000 ) ) ;
#180 = CYLINDRICAL_SURFACE ( 'NONE', #26, 3.000000000000000444 ) ;
#181 = CARTESIAN_POINT ( 'NONE',  ( 2.388061258337341108E-16, 0.000000000000000000, -1.950000000000001732 ) ) ;
#182 = CARTESIAN_POINT ( 'NONE',  ( 0.000000000000000000, 0.000000000000000000, 0.000000000000000000 ) ) ;
#183 = DIRECTION ( 'NONE',  ( 0.000000000000000000, 0.000000000000000000, -1.000000000000000000 ) ) ;
#184 = ORIENTED_EDGE ( 'NONE', *, *, #233, .F. ) ;
#185 = ORIENTED_EDGE ( 'NONE', *, *, #204, .T. ) ;
#186 = AXIS2_PLACEMENT_3D ( 'NONE', #164, #303, #278 ) ;
#187 = ORIENTED_EDGE ( 'NONE', *, *, #328, .F. ) ;
#188 =( LENGTH_UNIT ( ) NAMED_UNIT ( * ) SI_UNIT ( .MILLI., .METRE. ) );
#189 = CIRCLE ( 'NONE', #241, 1.450000000000000400 ) ;
#190 = AXIS2_PLACEMENT_3D ( 'NONE', #239, #209, #316 ) ;
#191 = DIRECTION ( 'NONE',  ( -0.000000000000000000, -1.000000000000000000, -0.000000000000000000 ) ) ;
#192 = DIRECTION ( 'NONE',  ( 0.000000000000000000, 1.000000000000000000, 0.000000000000000000 ) ) ;
#193 = VERTEX_POINT ( 'NONE', #340 ) ;
#194 = DIRECTION ( 'NONE',  ( 0.000000000000000000, 0.000000000000000000, -1.000000000000000000 ) ) ;
#195 = DIRECTION ( 'NONE',  ( 1.862163439839491770E-17, 0.9883716976506170537, -0.1520571842539418239 ) ) ;
#196 = ORIENTED_EDGE ( 'NONE', *, *, #197, .T. ) ;
#197 = EDGE_CURVE ( 'NONE', #299, #157, #254, .T. ) ;
#198 = ORIENTED_EDGE ( 'NONE', *, *, #1, .T. ) ;
#199 = EDGE_CURVE ( 'NONE', #215, #43, #36, .T. ) ;
#200 = DIRECTION ( 'NONE',  ( 0.000000000000000000, 0.000000000000000000, 1.000000000000000000 ) ) ;
#201 = ORIENTED_EDGE ( 'NONE', *, *, #1, .F. ) ;
#202 = DIRECTION ( 'NONE',  ( -0.000000000000000000, -1.000000000000000000, -0.000000000000000000 ) ) ;
#203 = VERTEX_POINT ( 'NONE', #313 ) ;
#204 = EDGE_CURVE ( 'NONE', #43, #173, #76, .T. ) ;
#205 = CARTESIAN_POINT ( 'NONE',  ( 0.000000000000000000, -5.500000000000005329, -3.000000000000000888 ) ) ;
#206 = AXIS2_PLACEMENT_3D ( 'NONE', #115, #236, #341 ) ;
#207 = EDGE_LOOP ( 'NONE', ( #141, #78, #238, #149 ) ) ;
#208 = STYLED_ITEM ( 'NONE', ( #19 ), #66 ) ;
#209 = DIRECTION ( 'NONE',  ( 0.000000000000000000, 1.000000000000000000, 0.000000000000000000 ) ) ;
#210 = CARTESIAN_POINT ( 'NONE',  ( 0.000000000000000000, -62.00000000000000000, 0.000000000000000000 ) ) ;
#211 = ORIENTED_EDGE ( 'NONE', *, *, #272, .F. ) ;
#212 = DIRECTION ( 'NONE',  ( -0.000000000000000000, -1.000000000000000000, -0.000000000000000000 ) ) ;
#213 = CARTESIAN_POINT ( 'NONE',  ( 0.000000000000000000, 0.000000000000000000, 0.000000000000000000 ) ) ;
#214 = CARTESIAN_POINT ( 'NONE',  ( 3.673940397442060361E-16, 0.000000000000000000, 3.000000000000000000 ) ) ;
#215 = VERTEX_POINT ( 'NONE', #214 ) ;
#216 = ORIENTED_EDGE ( 'NONE', *, *, #279, .F. ) ;
#217 = EDGE_CURVE ( 'NONE', #157, #299, #326, .T. ) ;
#218 = CARTESIAN_POINT ( 'NONE',  ( 1.775737858763662409E-16, -62.00000000000000000, 1.450000000000000400 ) ) ;
#219 = CARTESIAN_POINT ( 'NONE',  ( 0.000000000000000000, 0.000000000000000000, 0.000000000000000000 ) ) ;
#220 = ORIENTED_EDGE ( 'NONE', *, *, #279, .T. ) ;
#221 = AXIS2_PLACEMENT_3D ( 'NONE', #331, #25, #113 ) ;
#222 = STYLED_ITEM ( 'NONE', ( #79 ), #349 ) ;
#223 = AXIS2_PLACEMENT_3D ( 'NONE', #8, #123, #159 ) ;
#224 = CYLINDRICAL_SURFACE ( 'NONE', #73, 1.450000000000000400 ) ;
#225 = CIRCLE ( 'NONE', #206, 3.000000000000000888 ) ;
#226 = CONICAL_SURFACE ( 'NONE', #61, 1.950000000000001732, 0.7853981633974491672 ) ;
#227 = LINE ( 'NONE', #359, #168 ) ;
#228 = UNCERTAINTY_MEASURE_WITH_UNIT (LENGTH_MEASURE( 1.000000000000000082E-05 ), #188, 'distance_accuracy_value', 'NONE');
#229 = DIRECTION ( 'NONE',  ( -0.000000000000000000, -1.000000000000000000, -0.000000000000000000 ) ) ;
#230 = VERTEX_POINT ( 'NONE', #350 ) ;
#231 = EDGE_LOOP ( 'NONE', ( #81, #184, #101, #75 ) ) ;
#232 = CARTESIAN_POINT ( 'NONE',  ( 0.000000000000000000, 0.000000000000000000, 1.950000000000001732 ) ) ;
#233 = EDGE_CURVE ( 'NONE', #230, #193, #156, .T. ) ;
#234 = ORIENTED_EDGE ( 'NONE', *, *, #199, .T. ) ;
#235 = DIRECTION ( 'NONE',  ( 0.000000000000000000, 1.000000000000000000, 0.000000000000000000 ) ) ;
#236 = DIRECTION ( 'NONE',  ( -0.000000000000000000, -1.000000000000000000, -0.000000000000000000 ) ) ;
#237 = FACE_OUTER_BOUND ( 'NONE', #143, .T. ) ;
#238 = ORIENTED_EDGE ( 'NONE', *, *, #297, .T. ) ;
#239 = CARTESIAN_POINT ( 'NONE',  ( 0.000000000000000000, -11.99999999999999645, 0.000000000000000000 ) ) ;
#240 = DIRECTION ( 'NONE',  ( -0.000000000000000000, -1.000000000000000000, -0.000000000000000000 ) ) ;
#241 = AXIS2_PLACEMENT_3D ( 'NONE', #308, #259, #51 ) ;
#242 = VERTEX_POINT ( 'NONE', #171 ) ;
#243 = AXIS2_PLACEMENT_3D ( 'NONE', #77, #192, #47 ) ;
#244 = AXIS2_PLACEMENT_3D ( 'NONE', #56, #93, #286 ) ;
#245 = EDGE_LOOP ( 'NONE', ( #23, #68 ) ) ;
#246 = AXIS2_PLACEMENT_3D ( 'NONE', #268, #345, #266 ) ;
#247 = ADVANCED_FACE ( 'NONE', ( #145 ), #312, .T. ) ;
#248 = ORIENTED_EDGE ( 'NONE', *, *, #108, .F. ) ;
#249 = UNCERTAINTY_MEASURE_WITH_UNIT (LENGTH_MEASURE( 1.000000000000000082E-05 ), #334, 'distance_accuracy_value', 'NONE');
#250 = ADVANCED_FACE ( 'NONE', ( #114 ), #176, .T. ) ;
#251 = CARTESIAN_POINT ( 'NONE',  ( 2.388061258337341108E-16, 0.000000000000000000, -1.950000000000001732 ) ) ;
#252 = SURFACE_SIDE_STYLE ('',( #134 ) ) ;
#253 = AXIS2_PLACEMENT_3D ( 'NONE', #327, #191, #49 ) ;
#254 = CIRCLE ( 'NONE', #12, 1.950000000000001732 ) ;
#255 = SURFACE_STYLE_USAGE ( .BOTH. , #252 ) ;
#256 = CIRCLE ( 'NONE', #41, 1.999999999999997335 ) ;
#257 = ORIENTED_EDGE ( 'NONE', *, *, #55, .F. ) ;
#258 = DIRECTION ( 'NONE',  ( -0.000000000000000000, -1.000000000000000000, -0.000000000000000000 ) ) ;
#259 = DIRECTION ( 'NONE',  ( -0.000000000000000000, -1.000000000000000000, -0.000000000000000000 ) ) ;
#260 = EDGE_CURVE ( 'NONE', #193, #203, #227, .T. ) ;
#261 = CIRCLE ( 'NONE', #144, 3.000000000000000000 ) ;
#262 = EDGE_LOOP ( 'NONE', ( #280, #118, #281, #335 ) ) ;
#263 = DIRECTION ( 'NONE',  ( 0.000000000000000000, 0.000000000000000000, 1.000000000000000000 ) ) ;
#264 = VERTEX_POINT ( 'NONE', #362 ) ;
#265 = FACE_OUTER_BOUND ( 'NONE', #284, .T. ) ;
#266 = DIRECTION ( 'NONE',  ( 0.000000000000000000, 0.000000000000000000, -1.000000000000000000 ) ) ;
#267 = EDGE_LOOP ( 'NONE', ( #346, #122 ) ) ;
#268 = CARTESIAN_POINT ( 'NONE',  ( 0.000000000000000000, -19.99999999999999645, 0.000000000000000000 ) ) ;
#269 = CLOSED_SHELL ( 'NONE', ( #110, #40, #125, #153, #150, #98, #247, #163, #358, #250, #304, #343, #100 ) ) ;
#270 = EDGE_LOOP ( 'NONE', ( #311, #198, #90, #248 ) ) ;
#271 = CONICAL_SURFACE ( 'NONE', #190, 1.999999999999997335, 0.1526493283952658764 ) ;
#272 = EDGE_CURVE ( 'NONE', #290, #173, #276, .T. ) ;
#273 = AXIS2_PLACEMENT_3D ( 'NONE', #370, #235, #60 ) ;
#274 = CARTESIAN_POINT ( 'NONE',  ( 0.000000000000000000, -0.5000000000000004441, 0.000000000000000000 ) ) ;
#275 = DIRECTION ( 'NONE',  ( -0.000000000000000000, -1.000000000000000000, -0.000000000000000000 ) ) ;
#276 = LINE ( 'NONE', #165, #360 ) ;
#277 = EDGE_CURVE ( 'NONE', #230, #264, #356, .T. ) ;
#278 = DIRECTION ( 'NONE',  ( 0.000000000000000000, 0.000000000000000000, -1.000000000000000000 ) ) ;
#279 = EDGE_CURVE ( 'NONE', #242, #43, #161, .T. ) ;
#280 = ORIENTED_EDGE ( 'NONE', *, *, #199, .F. ) ;
#281 = ORIENTED_EDGE ( 'NONE', *, *, #27, .T. ) ;
#282 = ORIENTED_EDGE ( 'NONE', *, *, #44, .F. ) ;
#283 = MECHANICAL_DESIGN_GEOMETRIC_PRESENTATION_REPRESENTATION (  '', ( #222 ), #105 ) ;
#284 = EDGE_LOOP ( 'NONE', ( #318, #83, #35, #216 ) ) ;
#285 = VECTOR ( 'NONE', #42, 1000.000000000000000 ) ;
#286 = DIRECTION ( 'NONE',  ( 0.000000000000000000, 0.000000000000000000, -1.000000000000000000 ) ) ;
#287 = COLOUR_RGB ( '',0.7960784313725489669, 0.8235294117647058432, 0.9372549019607843146 ) ;
#288 = ORIENTED_EDGE ( 'NONE', *, *, #94, .T. ) ;
#289 = FACE_OUTER_BOUND ( 'NONE', #207, .T. ) ;
#290 = VERTEX_POINT ( 'NONE', #16 ) ;
#291 = DIRECTION ( 'NONE',  ( 0.000000000000000000, 0.000000000000000000, -1.000000000000000000 ) ) ;
#292 = DIRECTION ( 'NONE',  ( 0.000000000000000000, 0.000000000000000000, -1.000000000000000000 ) ) ;
#293 = DIRECTION ( 'NONE',  ( -0.000000000000000000, -1.000000000000000000, -0.000000000000000000 ) ) ;
#294 = DIRECTION ( 'NONE',  ( -0.000000000000000000, -1.000000000000000000, -0.000000000000000000 ) ) ;
#295 = CYLINDRICAL_SURFACE ( 'NONE', #244, 1.999999999999999112 ) ;
#296 = ORIENTED_EDGE ( 'NONE', *, *, #135, .F. ) ;
#297 = EDGE_CURVE ( 'NONE', #264, #203, #155, .T. ) ;
#298 = ORIENTED_EDGE ( 'NONE', *, *, #140, .F. ) ;
#299 = VERTEX_POINT ( 'NONE', #251 ) ;
#300 = CARTESIAN_POINT ( 'NONE',  ( 0.000000000000000000, -62.00000000000000000, 0.000000000000000000 ) ) ;
#301 =( NAMED_UNIT ( * ) SI_UNIT ( $, .STERADIAN. ) SOLID_ANGLE_UNIT ( ) );
#302 = DIRECTION ( 'NONE',  ( -0.000000000000000000, -1.000000000000000000, -0.000000000000000000 ) ) ;
#303 = DIRECTION ( 'NONE',  ( 0.000000000000000000, -1.000000000000000000, -0.000000000000000000 ) ) ;
#304 = ADVANCED_FACE ( 'NONE', ( #305 ), #224, .F. ) ;
#305 = FACE_OUTER_BOUND ( 'NONE', #130, .T. ) ;
#306 = CARTESIAN_POINT ( 'NONE',  ( 0.000000000000000000, -0.5000000000000004441, 0.000000000000000000 ) ) ;
#307 = VECTOR ( 'NONE', #315, 1000.000000000000000 ) ;
#308 = CARTESIAN_POINT ( 'NONE',  ( 0.000000000000000000, -4.000000000000003553, 0.000000000000000000 ) ) ;
#309 = DIRECTION ( 'NONE',  ( 0.000000000000000000, 0.000000000000000000, 1.000000000000000000 ) ) ;
#310 = VECTOR ( 'NONE', #102, 1000.000000000000000 ) ;
#311 = ORIENTED_EDGE ( 'NONE', *, *, #70, .F. ) ;
#312 = CONICAL_SURFACE ( 'NONE', #273, 1.999999999999997335, 0.1526493283952658764 ) ;
#313 = CARTESIAN_POINT ( 'NONE',  ( 0.000000000000000000, -4.000000000000003553, -1.450000000000000400 ) ) ;
#314 = MECHANICAL_DESIGN_GEOMETRIC_PRESENTATION_REPRESENTATION (  '', ( #208 ), #329 ) ;
#315 = DIRECTION ( 'NONE',  ( -0.000000000000000000, -1.000000000000000000, -0.000000000000000000 ) ) ;
#316 = DIRECTION ( 'NONE',  ( 0.000000000000000000, 0.000000000000000000, 1.000000000000000000 ) ) ;
#317 = DIRECTION ( 'NONE',  ( -0.000000000000000000, 1.000000000000000000, -0.000000000000000000 ) ) ;
#318 = ORIENTED_EDGE ( 'NONE', *, *, #94, .F. ) ;
#319 = CYLINDRICAL_SURFACE ( 'NONE', #142, 3.000000000000000444 ) ;
#320 =( NAMED_UNIT ( * ) SI_UNIT ( $, .STERADIAN. ) SOLID_ANGLE_UNIT ( ) );
#321 = VERTEX_POINT ( 'NONE', #104 ) ;
#322 = PRODUCT_DEFINITION_CONTEXT ( 'detailed design', #119, 'design' ) ;
#323 = FACE_OUTER_BOUND ( 'NONE', #267, .T. ) ;
#324 = CIRCLE ( 'NONE', #53, 1.450000000000000400 ) ;
#325 = CIRCLE ( 'NONE', #86, 3.000000000000000000 ) ;
#326 = CIRCLE ( 'NONE', #223, 1.950000000000001732 ) ;
#327 = CARTESIAN_POINT ( 'NONE',  ( 0.000000000000000000, -4.000000000000003553, 0.000000000000000000 ) ) ;
#328 = EDGE_CURVE ( 'NONE', #215, #5, #325, .T. ) ;
#329 =( GEOMETRIC_REPRESENTATION_CONTEXT ( 3 ) GLOBAL_UNCERTAINTY_ASSIGNED_CONTEXT ( ( #249 ) ) GLOBAL_UNIT_ASSIGNED_CONTEXT ( ( #334, #167, #320 ) ) REPRESENTATION_CONTEXT ( 'NONE', 'WORKASPACE' ) );
#330 = CARTESIAN_POINT ( 'NONE',  ( 0.000000000000000000, 0.000000000000000000, 0.000000000000000000 ) ) ;
#331 = CARTESIAN_POINT ( 'NONE',  ( 0.000000000000000000, -62.00000000000000000, 0.000000000000000000 ) ) ;
#332 = PRODUCT_DEFINITION ( 'UNKNOWN', '', #46, #322 ) ;
#333 = DIRECTION ( 'NONE',  ( 1.000000000000000000, 0.000000000000000000, 0.000000000000000000 ) ) ;
#334 =( LENGTH_UNIT ( ) NAMED_UNIT ( * ) SI_UNIT ( .MILLI., .METRE. ) );
#335 = ORIENTED_EDGE ( 'NONE', *, *, #204, .F. ) ;
#336 = APPLICATION_CONTEXT ( 'automotive_design' ) ;
#337 = CARTESIAN_POINT ( 'NONE',  ( 3.673940397442060361E-16, -62.00000000000000000, 3.000000000000000444 ) ) ;
#338 = AXIS2_PLACEMENT_3D ( 'NONE', #366, #229, #82 ) ;
#339 = ORIENTED_EDGE ( 'NONE', *, *, #233, .T. ) ;
#340 = CARTESIAN_POINT ( 'NONE',  ( 0.000000000000000000, -0.5000000000000004441, -1.450000000000000400 ) ) ;
#341 = DIRECTION ( 'NONE',  ( 0.000000000000000000, 0.000000000000000000, -1.000000000000000000 ) ) ;
#342 = VECTOR ( 'NONE', #30, 999.9999999999998863 ) ;
#343 = ADVANCED_FACE ( 'NONE', ( #103, #131 ), #48, .T. ) ;
#344 = EDGE_LOOP ( 'NONE', ( #32, #234, #257, #11 ) ) ;
#345 = DIRECTION ( 'NONE',  ( -0.000000000000000000, -1.000000000000000000, -0.000000000000000000 ) ) ;
#346 = ORIENTED_EDGE ( 'NONE', *, *, #160, .T. ) ;
#347 = DIRECTION ( 'NONE',  ( -0.000000000000000000, -1.000000000000000000, -0.000000000000000000 ) ) ;
#348 = CARTESIAN_POINT ( 'NONE',  ( 2.449293598294705428E-16, -62.00000000000000000, 1.999999999999999112 ) ) ;
#349 = ADVANCED_BREP_SHAPE_REPRESENTATION ( 'INGUN_19315', ( #66, #355 ), #124 ) ;
#350 = CARTESIAN_POINT ( 'NONE',  ( 1.775737858763662409E-16, -0.5000000000000004441, 1.450000000000000400 ) ) ;
#351 = PRODUCT_RELATED_PRODUCT_CATEGORY ( 'part', '', ( #175 ) ) ;
#352 = DIRECTION ( 'NONE',  ( -0.000000000000000000, -1.000000000000000000, -0.000000000000000000 ) ) ;
#353 = ORIENTED_EDGE ( 'NONE', *, *, #177, .T. ) ;
#354 = DIRECTION ( 'NONE',  ( -0.000000000000000000, -1.000000000000000000, -0.000000000000000000 ) ) ;
#355 = AXIS2_PLACEMENT_3D ( 'NONE', #330, #200, #333 ) ;
#356 = LINE ( 'NONE', #218, #10 ) ;
#357 = DIRECTION ( 'NONE',  ( -0.000000000000000000, -1.000000000000000000, -0.000000000000000000 ) ) ;
#358 = ADVANCED_FACE ( 'NONE', ( #323 ), #162, .T. ) ;
#359 = CARTESIAN_POINT ( 'NONE',  ( 0.000000000000000000, -62.00000000000000000, -1.450000000000000400 ) ) ;
#360 = VECTOR ( 'NONE', #195, 1000.000000000000000 ) ;
#361 = CIRCLE ( 'NONE', #170, 2.000000000000000888 ) ;
#362 = CARTESIAN_POINT ( 'NONE',  ( 1.775737858763662409E-16, -4.000000000000003553, 1.450000000000000400 ) ) ;
#363 = PRESENTATION_LAYER_ASSIGNMENT (  '', '', ( #208 ) ) ;
#364 = APPLICATION_PROTOCOL_DEFINITION ( 'draft international standard', 'automotive_design', 1998, #119 ) ;
#365 = SURFACE_SIDE_STYLE ('',( #111 ) ) ;
#366 = CARTESIAN_POINT ( 'NONE',  ( 0.000000000000000000, -11.99999999999999645, 0.000000000000000000 ) ) ;
#367 = ORIENTED_EDGE ( 'NONE', *, *, #97, .F. ) ;
#368 =( NAMED_UNIT ( * ) PLANE_ANGLE_UNIT ( ) SI_UNIT ( $, .RADIAN. ) );
#369 = CARTESIAN_POINT ( 'NONE',  ( 0.000000000000000000, 0.000000000000000000, -3.000000000000000000 ) ) ;
#370 = CARTESIAN_POINT ( 'NONE',  ( 0.000000000000000000, -11.99999999999999645, 0.000000000000000000 ) ) ;
ENDSEC;
END-ISO-10303-21;
