ISO-10303-21;
HEADER;
FILE_DESCRIPTION (( 'STEP AP214' ),
    '1' );
FILE_NAME ('18742~2.STEP',
    '2019-07-16T09:33:54',
    ( '' ),
    ( '' ),
    'SwSTEP 2.0',
    'SolidWorks 2018',
    '' );
FILE_SCHEMA (( 'AUTOMOTIVE_DESIGN' ));
ENDSEC;

DATA;
#1 = ADVANCED_FACE ( 'Defeature ausgeführt1_1', ( #50 ), #105, .T. ) ;
#2 = FACE_OUTER_BOUND ( 'NONE', #46, .T. ) ;
#3 = PRESENTATION_STYLE_ASSIGNMENT (( #160 ) ) ;
#4 = ORIENTED_EDGE ( 'NONE', *, *, #84, .F. ) ;
#5 = CARTESIAN_POINT ( 'NONE',  ( 0.0000000000000000000, 20.00000000000000000, -2.999999999999999112 ) ) ;
#6 = AXIS2_PLACEMENT_3D ( 'NONE', #57, #154, #10 ) ;
#7 = VERTEX_POINT ( 'NONE', #41 ) ;
#8 = CARTESIAN_POINT ( 'NONE',  ( 0.0000000000000000000, 20.00000000000000000, 0.0000000000000000000 ) ) ;
#9 = SURFACE_STYLE_FILL_AREA ( #177 ) ;
#10 = DIRECTION ( 'NONE',  ( 0.0000000000000000000, 0.0000000000000000000, 1.000000000000000000 ) ) ;
#11 = CARTESIAN_POINT ( 'NONE',  ( 3.673940397442058882E-16, 20.00000000000000000, 2.999999999999999112 ) ) ;
#12 = MANIFOLD_SOLID_BREP ( 'Defeature ausgeführt1_3', #144 ) ;
#13 = ORIENTED_EDGE ( 'NONE', *, *, #100, .F. ) ;
#14 = MECHANICAL_DESIGN_GEOMETRIC_PRESENTATION_REPRESENTATION (  '', ( #61 ), #168 ) ;
#15 = SHAPE_DEFINITION_REPRESENTATION ( #169, #138 ) ;
#16 = PRODUCT ( '18742~2', '18742~2', '', ( #187 ) ) ;
#17 = CARTESIAN_POINT ( 'NONE',  ( 0.0000000000000000000, 20.00000000000000000, 0.0000000000000000000 ) ) ;
#18 = FACE_OUTER_BOUND ( 'NONE', #166, .T. ) ;
#19 = FACE_OUTER_BOUND ( 'NONE', #103, .T. ) ;
#20 = CARTESIAN_POINT ( 'NONE',  ( 0.0000000000000000000, 0.1999999999999987899, 0.0000000000000000000 ) ) ;
#21 = CIRCLE ( 'NONE', #161, 2.999999999999999112 ) ;
#22 = EDGE_LOOP ( 'NONE', ( #167, #125, #38, #117 ) ) ;
#23 = LINE ( 'NONE', #70, #52 ) ;
#24 = EDGE_CURVE ( 'Defeature ausgeführt1_1+Defeature ausgeführt1_0+Defeature ausgeführt1_0+Defeature ausgeführt1_0', #183, #157, #182, .T. ) ;
#25 = ORIENTED_EDGE ( 'NONE', *, *, #55, .F. ) ;
#26 = ORIENTED_EDGE ( 'NONE', *, *, #53, .F. ) ;
#27 = CARTESIAN_POINT ( 'NONE',  ( 0.0000000000000000000, 20.00000000000000000, 0.0000000000000000000 ) ) ;
#28 = CYLINDRICAL_SURFACE ( 'NONE', #170, 2.999999999999999112 ) ;
#29 = CARTESIAN_POINT ( 'NONE',  ( 0.0000000000000000000, 0.0000000000000000000, 0.0000000000000000000 ) ) ;
#30 = DIRECTION ( 'NONE',  ( -0.0000000000000000000, 1.000000000000000000, -0.0000000000000000000 ) ) ;
#31 = ORIENTED_EDGE ( 'NONE', *, *, #24, .T. ) ;
#32 = ADVANCED_FACE ( 'Defeature ausgeführt1_0', ( #18 ), #28, .T. ) ;
#33 = CARTESIAN_POINT ( 'NONE',  ( 3.551475717527322846E-16, 0.0000000000000000000, -2.799999999999998046 ) ) ;
#34 = EDGE_CURVE ( 'NONE', #164, #7, #23, .T. ) ;
#35 = SURFACE_SIDE_STYLE ('',( #9 ) ) ;
#36 = PRODUCT_DEFINITION ( 'UNKNOWN', '', #69, #51 ) ;
#37 = AXIS2_PLACEMENT_3D ( 'NONE', #176, #162, #128 ) ;
#38 = ORIENTED_EDGE ( 'NONE', *, *, #34, .T. ) ;
#39 = ORIENTED_EDGE ( 'NONE', *, *, #84, .T. ) ;
#40 = FILL_AREA_STYLE_COLOUR ( '', #143 ) ;
#41 = CARTESIAN_POINT ( 'NONE',  ( 3.673940397442058882E-16, 0.1999999999999987899, 2.999999999999999112 ) ) ;
#42 = CARTESIAN_POINT ( 'NONE',  ( 0.0000000000000000000, 0.0000000000000000000, 0.0000000000000000000 ) ) ;
#43 = EDGE_LOOP ( 'NONE', ( #109, #76 ) ) ;
#44 = DIRECTION ( 'NONE',  ( 0.0000000000000000000, 0.0000000000000000000, 1.000000000000000000 ) ) ;
#45 = APPLICATION_CONTEXT ( 'automotive_design' ) ;
#46 = EDGE_LOOP ( 'NONE', ( #139, #13, #39, #83 ) ) ;
#47 = ADVANCED_FACE ( 'Defeature ausgeführt1_0', ( #2 ), #58, .T. ) ;
#48 = AXIS2_PLACEMENT_3D ( 'NONE', #8, #59, #173 ) ;
#49 = STYLED_ITEM ( 'NONE', ( #178 ), #12 ) ;
#50 = FACE_OUTER_BOUND ( 'NONE', #78, .T. ) ;
#51 = PRODUCT_DEFINITION_CONTEXT ( 'detailed design', #113, 'design' ) ;
#52 = VECTOR ( 'NONE', #81, 1000.000000000000114 ) ;
#53 = EDGE_CURVE ( 'Defeature ausgeführt1_2+Defeature ausgeführt1_3+Defeature ausgeführt1_3+Defeature ausgeführt1_3', #186, #164, #96, .T. ) ;
#54 =( NAMED_UNIT ( * ) SI_UNIT ( $, .STERADIAN. ) SOLID_ANGLE_UNIT ( ) );
#55 = EDGE_CURVE ( 'Defeature ausgeführt1_0+Defeature ausgeführt1_3+Defeature ausgeführt1_3+Defeature ausgeführt1_3', #7, #98, #21, .T. ) ;
#56 = CARTESIAN_POINT ( 'NONE',  ( 0.0000000000000000000, 0.1999999999999987899, 0.0000000000000000000 ) ) ;
#57 = CARTESIAN_POINT ( 'NONE',  ( 0.0000000000000000000, 0.1999999999999987899, 0.0000000000000000000 ) ) ;
#58 = CYLINDRICAL_SURFACE ( 'NONE', #188, 2.999999999999999112 ) ;
#59 = DIRECTION ( 'NONE',  ( 0.0000000000000000000, 1.000000000000000000, 0.0000000000000000000 ) ) ;
#60 = DIRECTION ( 'NONE',  ( -0.0000000000000000000, -1.000000000000000000, -0.0000000000000000000 ) ) ;
#61 = STYLED_ITEM ( 'NONE', ( #3 ), #138 ) ;
#62 = APPLICATION_PROTOCOL_DEFINITION ( 'draft international standard', 'automotive_design', 1998, #45 ) ;
#63 =( LENGTH_UNIT ( ) NAMED_UNIT ( * ) SI_UNIT ( .MILLI., .METRE. ) );
#64 =( NAMED_UNIT ( * ) PLANE_ANGLE_UNIT ( ) SI_UNIT ( $, .RADIAN. ) );
#65 =( GEOMETRIC_REPRESENTATION_CONTEXT ( 3 ) GLOBAL_UNCERTAINTY_ASSIGNED_CONTEXT ( ( #179 ) ) GLOBAL_UNIT_ASSIGNED_CONTEXT ( ( #149, #150, #54 ) ) REPRESENTATION_CONTEXT ( 'NONE', 'WORKASPACE' ) );
#66 = VECTOR ( 'NONE', #172, 1000.000000000000000 ) ;
#67 = SURFACE_SIDE_STYLE ('',( #155 ) ) ;
#68 = CIRCLE ( 'NONE', #48, 2.999999999999999112 ) ;
#69 = PRODUCT_DEFINITION_FORMATION_WITH_SPECIFIED_SOURCE ( 'ANY', '', #16, .NOT_KNOWN. ) ;
#70 = CARTESIAN_POINT ( 'NONE',  ( 0.0000000000000000000, 0.1999999999999987899, 2.999999999999999112 ) ) ;
#71 = DIRECTION ( 'NONE',  ( 0.0000000000000000000, -0.0000000000000000000, 1.000000000000000000 ) ) ;
#72 = DIRECTION ( 'NONE',  ( 0.0000000000000000000, 1.000000000000000000, 0.0000000000000000000 ) ) ;
#73 = FILL_AREA_STYLE_COLOUR ( '', #121 ) ;
#74 = AXIS2_PLACEMENT_3D ( 'NONE', #29, #60, #44 ) ;
#75 = DIRECTION ( 'NONE',  ( 0.0000000000000000000, 0.0000000000000000000, 1.000000000000000000 ) ) ;
#76 = ORIENTED_EDGE ( 'NONE', *, *, #53, .T. ) ;
#77 = MECHANICAL_DESIGN_GEOMETRIC_PRESENTATION_REPRESENTATION (  '', ( #49 ), #65 ) ;
#78 = EDGE_LOOP ( 'NONE', ( #148, #31 ) ) ;
#79 = FACE_OUTER_BOUND ( 'NONE', #22, .T. ) ;
#80 = DIRECTION ( 'NONE',  ( -0.0000000000000000000, -1.000000000000000000, -0.0000000000000000000 ) ) ;
#81 = DIRECTION ( 'NONE',  ( 0.0000000000000000000, 0.7071067811865436870, 0.7071067811865513475 ) ) ;
#82 = LINE ( 'NONE', #119, #180 ) ;
#83 = ORIENTED_EDGE ( 'NONE', *, *, #132, .T. ) ;
#84 = EDGE_CURVE ( 'NONE', #157, #98, #129, .T. ) ;
#85 = DIRECTION ( 'NONE',  ( -0.0000000000000000000, 1.000000000000000000, -0.0000000000000000000 ) ) ;
#86 =( NAMED_UNIT ( * ) SI_UNIT ( $, .STERADIAN. ) SOLID_ANGLE_UNIT ( ) );
#87 = EDGE_CURVE ( 'NONE', #186, #98, #82, .T. ) ;
#88 = ORIENTED_EDGE ( 'NONE', *, *, #55, .T. ) ;
#89 = CARTESIAN_POINT ( 'NONE',  ( 0.0000000000000000000, 0.1999999999999987899, 0.0000000000000000000 ) ) ;
#90 = DIRECTION ( 'NONE',  ( 0.0000000000000000000, 0.0000000000000000000, 1.000000000000000000 ) ) ;
#91 = CARTESIAN_POINT ( 'NONE',  ( 3.673940397442058882E-16, 20.00000000000000000, 2.999999999999999112 ) ) ;
#92 = ADVANCED_FACE ( 'Defeature ausgeführt1_3', ( #19 ), #116, .T. ) ;
#93 = AXIS2_PLACEMENT_3D ( 'NONE', #27, #146, #135 ) ;
#94 = APPLICATION_PROTOCOL_DEFINITION ( 'draft international standard', 'automotive_design', 1998, #113 ) ;
#95 = ADVANCED_FACE ( 'Defeature ausgeführt1_2', ( #115 ), #153, .F. ) ;
#96 = CIRCLE ( 'NONE', #114, 2.799999999999998046 ) ;
#97 = AXIS2_PLACEMENT_3D ( 'NONE', #56, #30, #106 ) ;
#98 = VERTEX_POINT ( 'NONE', #127 ) ;
#99 = ORIENTED_EDGE ( 'NONE', *, *, #87, .T. ) ;
#100 = EDGE_CURVE ( 'Defeature ausgeführt1_1+Defeature ausgeführt1_0+Defeature ausgeführt1_0+Defeature ausgeführt1_0', #157, #183, #68, .T. ) ;
#101 = DIRECTION ( 'NONE',  ( 0.0000000000000000000, 0.0000000000000000000, -1.000000000000000000 ) ) ;
#102 = UNCERTAINTY_MEASURE_WITH_UNIT (LENGTH_MEASURE( 1.000000000000000082E-05 ), #63, 'distance_accuracy_value', 'NONE');
#103 = EDGE_LOOP ( 'NONE', ( #26, #99, #25, #126 ) ) ;
#104 = CARTESIAN_POINT ( 'NONE',  ( 0.0000000000000000000, 20.00000000000000000, 0.0000000000000000000 ) ) ;
#105 = PLANE ( 'NONE',  #136 ) ;
#106 = DIRECTION ( 'NONE',  ( 0.0000000000000000000, 0.0000000000000000000, 1.000000000000000000 ) ) ;
#107 = DIRECTION ( 'NONE',  ( -0.0000000000000000000, -1.000000000000000000, -0.0000000000000000000 ) ) ;
#108 =( LENGTH_UNIT ( ) NAMED_UNIT ( * ) SI_UNIT ( .MILLI., .METRE. ) );
#109 = ORIENTED_EDGE ( 'NONE', *, *, #118, .T. ) ;
#110 = DIRECTION ( 'NONE',  ( 8.659560562354979697E-17, 0.7071067811865436870, -0.7071067811865513475 ) ) ;
#111 =( NAMED_UNIT ( * ) SI_UNIT ( $, .STERADIAN. ) SOLID_ANGLE_UNIT ( ) );
#112 = AXIS2_PLACEMENT_3D ( 'NONE', #89, #85, #171 ) ;
#113 = APPLICATION_CONTEXT ( 'automotive_design' ) ;
#114 = AXIS2_PLACEMENT_3D ( 'NONE', #42, #151, #75 ) ;
#115 = FACE_OUTER_BOUND ( 'NONE', #43, .T. ) ;
#116 = CONICAL_SURFACE ( 'NONE', #112, 2.999999999999999112, 0.7853981633974537191 ) ;
#117 = ORIENTED_EDGE ( 'NONE', *, *, #132, .F. ) ;
#118 = EDGE_CURVE ( 'Defeature ausgeführt1_2+Defeature ausgeführt1_3+Defeature ausgeführt1_3+Defeature ausgeführt1_3', #164, #186, #175, .T. ) ;
#119 = CARTESIAN_POINT ( 'NONE',  ( 3.673940397442058882E-16, 0.1999999999999987899, -2.999999999999999112 ) ) ;
#120 = FILL_AREA_STYLE ('',( #40 ) ) ;
#121 = COLOUR_RGB ( '',0.7529411764705882248, 0.7529411764705882248, 0.7529411764705882248 ) ;
#122 = CARTESIAN_POINT ( 'NONE',  ( 0.0000000000000000000, 20.00000000000000000, 0.0000000000000000000 ) ) ;
#123 =( GEOMETRIC_REPRESENTATION_CONTEXT ( 3 ) GLOBAL_UNCERTAINTY_ASSIGNED_CONTEXT ( ( #141 ) ) GLOBAL_UNIT_ASSIGNED_CONTEXT ( ( #108, #152, #86 ) ) REPRESENTATION_CONTEXT ( 'NONE', 'WORKASPACE' ) );
#124 = CARTESIAN_POINT ( 'NONE',  ( 0.0000000000000000000, 20.00000000000000000, -2.999999999999999112 ) ) ;
#125 = ORIENTED_EDGE ( 'NONE', *, *, #118, .F. ) ;
#126 = ORIENTED_EDGE ( 'NONE', *, *, #34, .F. ) ;
#127 = CARTESIAN_POINT ( 'NONE',  ( 0.0000000000000000000, 0.1999999999999987899, -2.999999999999999112 ) ) ;
#128 = DIRECTION ( 'NONE',  ( 1.000000000000000000, 0.0000000000000000000, 0.0000000000000000000 ) ) ;
#129 = LINE ( 'NONE', #5, #189 ) ;
#130 = PRESENTATION_LAYER_ASSIGNMENT (  '', '', ( #61 ) ) ;
#131 = CIRCLE ( 'NONE', #97, 2.999999999999999112 ) ;
#132 = EDGE_CURVE ( 'Defeature ausgeführt1_0+Defeature ausgeführt1_3+Defeature ausgeführt1_3+Defeature ausgeführt1_3', #98, #7, #131, .T. ) ;
#133 = DIRECTION ( 'NONE',  ( -0.0000000000000000000, -1.000000000000000000, -0.0000000000000000000 ) ) ;
#134 = DIRECTION ( 'NONE',  ( 0.0000000000000000000, 1.000000000000000000, 0.0000000000000000000 ) ) ;
#135 = DIRECTION ( 'NONE',  ( 0.0000000000000000000, 0.0000000000000000000, 1.000000000000000000 ) ) ;
#136 = AXIS2_PLACEMENT_3D ( 'NONE', #17, #134, #71 ) ;
#137 = DIRECTION ( 'NONE',  ( 0.0000000000000000000, -0.0000000000000000000, 1.000000000000000000 ) ) ;
#138 = ADVANCED_BREP_SHAPE_REPRESENTATION ( '18742~2', ( #12, #37 ), #123 ) ;
#139 = ORIENTED_EDGE ( 'NONE', *, *, #165, .F. ) ;
#140 = PRODUCT_RELATED_PRODUCT_CATEGORY ( 'part', '', ( #16 ) ) ;
#141 = UNCERTAINTY_MEASURE_WITH_UNIT (LENGTH_MEASURE( 1.000000000000000082E-05 ), #108, 'distance_accuracy_value', 'NONE');
#142 = CONICAL_SURFACE ( 'NONE', #6, 2.999999999999999112, 0.7853981633974537191 ) ;
#143 = COLOUR_RGB ( '',0.2509803921568627416, 0.2509803921568627416, 0.2509803921568627416 ) ;
#144 = CLOSED_SHELL ( 'NONE', ( #92, #32, #47, #1, #95, #159 ) ) ;
#145 = LINE ( 'NONE', #91, #66 ) ;
#146 = DIRECTION ( 'NONE',  ( 0.0000000000000000000, 1.000000000000000000, 0.0000000000000000000 ) ) ;
#147 = DIRECTION ( 'NONE',  ( 0.0000000000000000000, 0.0000000000000000000, -1.000000000000000000 ) ) ;
#148 = ORIENTED_EDGE ( 'NONE', *, *, #100, .T. ) ;
#149 =( LENGTH_UNIT ( ) NAMED_UNIT ( * ) SI_UNIT ( .MILLI., .METRE. ) );
#150 =( NAMED_UNIT ( * ) PLANE_ANGLE_UNIT ( ) SI_UNIT ( $, .RADIAN. ) );
#151 = DIRECTION ( 'NONE',  ( -0.0000000000000000000, -1.000000000000000000, -0.0000000000000000000 ) ) ;
#152 =( NAMED_UNIT ( * ) PLANE_ANGLE_UNIT ( ) SI_UNIT ( $, .RADIAN. ) );
#153 = PLANE ( 'NONE',  #158 ) ;
#154 = DIRECTION ( 'NONE',  ( -0.0000000000000000000, 1.000000000000000000, -0.0000000000000000000 ) ) ;
#155 = SURFACE_STYLE_FILL_AREA ( #120 ) ;
#156 = CARTESIAN_POINT ( 'NONE',  ( 0.0000000000000000000, 0.0000000000000000000, 0.0000000000000000000 ) ) ;
#157 = VERTEX_POINT ( 'NONE', #124 ) ;
#158 = AXIS2_PLACEMENT_3D ( 'NONE', #156, #72, #137 ) ;
#159 = ADVANCED_FACE ( 'Defeature ausgeführt1_3', ( #79 ), #142, .T. ) ;
#160 = SURFACE_STYLE_USAGE ( .BOTH. , #35 ) ;
#161 = AXIS2_PLACEMENT_3D ( 'NONE', #20, #174, #90 ) ;
#162 = DIRECTION ( 'NONE',  ( 0.0000000000000000000, 0.0000000000000000000, 1.000000000000000000 ) ) ;
#163 = ORIENTED_EDGE ( 'NONE', *, *, #24, .F. ) ;
#164 = VERTEX_POINT ( 'NONE', #184 ) ;
#165 = EDGE_CURVE ( 'NONE', #183, #7, #145, .T. ) ;
#166 = EDGE_LOOP ( 'NONE', ( #163, #190, #88, #4 ) ) ;
#167 = ORIENTED_EDGE ( 'NONE', *, *, #87, .F. ) ;
#168 =( GEOMETRIC_REPRESENTATION_CONTEXT ( 3 ) GLOBAL_UNCERTAINTY_ASSIGNED_CONTEXT ( ( #102 ) ) GLOBAL_UNIT_ASSIGNED_CONTEXT ( ( #63, #64, #111 ) ) REPRESENTATION_CONTEXT ( 'NONE', 'WORKASPACE' ) );
#169 = PRODUCT_DEFINITION_SHAPE ( 'NONE', 'NONE',  #36 ) ;
#170 = AXIS2_PLACEMENT_3D ( 'NONE', #122, #133, #147 ) ;
#171 = DIRECTION ( 'NONE',  ( 0.0000000000000000000, 0.0000000000000000000, 1.000000000000000000 ) ) ;
#172 = DIRECTION ( 'NONE',  ( -0.0000000000000000000, -1.000000000000000000, -0.0000000000000000000 ) ) ;
#173 = DIRECTION ( 'NONE',  ( 0.0000000000000000000, 0.0000000000000000000, 1.000000000000000000 ) ) ;
#174 = DIRECTION ( 'NONE',  ( -0.0000000000000000000, 1.000000000000000000, -0.0000000000000000000 ) ) ;
#175 = CIRCLE ( 'NONE', #74, 2.799999999999998046 ) ;
#176 = CARTESIAN_POINT ( 'NONE',  ( 0.0000000000000000000, 0.0000000000000000000, 0.0000000000000000000 ) ) ;
#177 = FILL_AREA_STYLE ('',( #73 ) ) ;
#178 = PRESENTATION_STYLE_ASSIGNMENT (( #181 ) ) ;
#179 = UNCERTAINTY_MEASURE_WITH_UNIT (LENGTH_MEASURE( 1.000000000000000082E-05 ), #149, 'distance_accuracy_value', 'NONE');
#180 = VECTOR ( 'NONE', #110, 1000.000000000000114 ) ;
#181 = SURFACE_STYLE_USAGE ( .BOTH. , #67 ) ;
#182 = CIRCLE ( 'NONE', #93, 2.999999999999999112 ) ;
#183 = VERTEX_POINT ( 'NONE', #11 ) ;
#184 = CARTESIAN_POINT ( 'NONE',  ( 0.0000000000000000000, 0.0000000000000000000, 2.799999999999998046 ) ) ;
#185 = PRESENTATION_LAYER_ASSIGNMENT (  '', '', ( #49 ) ) ;
#186 = VERTEX_POINT ( 'NONE', #33 ) ;
#187 = PRODUCT_CONTEXT ( 'NONE', #45, 'mechanical' ) ;
#188 = AXIS2_PLACEMENT_3D ( 'NONE', #104, #80, #101 ) ;
#189 = VECTOR ( 'NONE', #107, 1000.000000000000000 ) ;
#190 = ORIENTED_EDGE ( 'NONE', *, *, #165, .T. ) ;
ENDSEC;
END-ISO-10303-21;
