ISO-10303-21;
HEADER;
FILE_DESCRIPTION (( 'STEP AP214' ),
    '1' );
FILE_NAME ('INGUN_17990~2.STEP',
    '2021-04-07T07:27:02',
    ( '' ),
    ( '' ),
    'SwSTEP 2.0',
    'SolidWorks 2018',
    '' );
FILE_SCHEMA (( 'AUTOMOTIVE_DESIGN' ));
ENDSEC;

DATA;
#1 = CIRCLE ( 'NONE', #55, 1.000000000000000888 ) ;
#2 = ORIENTED_EDGE ( 'NONE', *, *, #150, .T. ) ;
#3 = SURFACE_SIDE_STYLE ('',( #236 ) ) ;
#4 = CIRCLE ( 'NONE', #184, 1.500000000000001332 ) ;
#5 = VERTEX_POINT ( 'NONE', #256 ) ;
#6 = DIRECTION ( 'NONE',  ( 0.000000000000000000, 0.000000000000000000, -1.000000000000000000 ) ) ;
#7 = CARTESIAN_POINT ( 'NONE',  ( 0.000000000000000000, 14.48674418604650782, 1.000000000000001554 ) ) ;
#8 = LINE ( 'NONE', #139, #157 ) ;
#9 = ADVANCED_FACE ( 'NONE', ( #244 ), #225, .T. ) ;
#10 = ORIENTED_EDGE ( 'NONE', *, *, #159, .F. ) ;
#11 = ADVANCED_FACE ( 'NONE', ( #84 ), #39, .T. ) ;
#12 =( LENGTH_UNIT ( ) NAMED_UNIT ( * ) SI_UNIT ( .MILLI., .METRE. ) );
#13 = FACE_OUTER_BOUND ( 'NONE', #185, .T. ) ;
#14 = ORIENTED_EDGE ( 'NONE', *, *, #22, .F. ) ;
#15 = EDGE_CURVE ( 'NONE', #26, #233, #284, .T. ) ;
#16 = DIRECTION ( 'NONE',  ( 0.000000000000000000, 0.000000000000000000, 1.000000000000000000 ) ) ;
#17 = CARTESIAN_POINT ( 'NONE',  ( 0.000000000000000000, 6.800000000000000711, -1.000000000000000888 ) ) ;
#18 = ORIENTED_EDGE ( 'NONE', *, *, #189, .F. ) ;
#19 = CARTESIAN_POINT ( 'NONE',  ( 1.836970198721031167E-16, 14.48674418604650782, -1.500000000000001110 ) ) ;
#20 = DIRECTION ( 'NONE',  ( 0.000000000000000000, -1.000000000000000000, 0.000000000000000000 ) ) ;
#21 = VERTEX_POINT ( 'NONE', #161 ) ;
#22 = EDGE_CURVE ( 'NONE', #21, #203, #49, .T. ) ;
#23 = DIRECTION ( 'NONE',  ( 8.659560562354961208E-17, 0.7071067811865452413, -0.7071067811865497932 ) ) ;
#24 = SHAPE_DEFINITION_REPRESENTATION ( #28, #297 ) ;
#25 = APPLICATION_PROTOCOL_DEFINITION ( 'draft international standard', 'automotive_design', 1998, #171 ) ;
#26 = VERTEX_POINT ( 'NONE', #17 ) ;
#27 = AXIS2_PLACEMENT_3D ( 'NONE', #269, #29, #56 ) ;
#28 = PRODUCT_DEFINITION_SHAPE ( 'NONE', 'NONE',  #311 ) ;
#29 = DIRECTION ( 'NONE',  ( -0.000000000000000000, 1.000000000000000000, -0.000000000000000000 ) ) ;
#30 =( NAMED_UNIT ( * ) SI_UNIT ( $, .STERADIAN. ) SOLID_ANGLE_UNIT ( ) );
#31 = ORIENTED_EDGE ( 'NONE', *, *, #78, .T. ) ;
#32 = CONICAL_SURFACE ( 'NONE', #85, 1.000000000000000888, 0.7853981633974463916 ) ;
#33 = ORIENTED_EDGE ( 'NONE', *, *, #249, .F. ) ;
#34 = ORIENTED_EDGE ( 'NONE', *, *, #315, .T. ) ;
#35 = SURFACE_STYLE_USAGE ( .BOTH. , #177 ) ;
#36 = EDGE_LOOP ( 'NONE', ( #132, #160, #146, #10 ) ) ;
#37 = PRESENTATION_LAYER_ASSIGNMENT (  '', '', ( #100 ) ) ;
#38 = LINE ( 'NONE', #207, #293 ) ;
#39 = CONICAL_SURFACE ( 'NONE', #278, 1.000000000000001554, 0.7853981633974514986 ) ;
#40 = DIRECTION ( 'NONE',  ( -0.000000000000000000, 1.000000000000000000, -0.000000000000000000 ) ) ;
#41 = UNCERTAINTY_MEASURE_WITH_UNIT (LENGTH_MEASURE( 1.000000000000000082E-05 ), #240, 'distance_accuracy_value', 'NONE');
#42 = CARTESIAN_POINT ( 'NONE',  ( 0.000000000000000000, 6.800000000000000711, 0.000000000000000000 ) ) ;
#43 = AXIS2_PLACEMENT_3D ( 'NONE', #228, #109, #158 ) ;
#44 = DIRECTION ( 'NONE',  ( 0.000000000000000000, 0.000000000000000000, 1.000000000000000000 ) ) ;
#45 = CYLINDRICAL_SURFACE ( 'NONE', #71, 1.500000000000001110 ) ;
#46 = PLANE ( 'NONE',  #57 ) ;
#47 = CARTESIAN_POINT ( 'NONE',  ( 0.000000000000000000, 6.800000000000000711, -1.000000000000000888 ) ) ;
#48 = DIRECTION ( 'NONE',  ( 8.659560562354915602E-17, -0.7071067811865489050, 0.7071067811865462405 ) ) ;
#49 = CIRCLE ( 'NONE', #239, 0.4999999999999978351 ) ;
#50 = CARTESIAN_POINT ( 'NONE',  ( 1.530808498934193050E-16, 6.800000000000000711, 1.000000000000000888 ) ) ;
#51 = ADVANCED_FACE ( 'NONE', ( #152 ), #113, .T. ) ;
#52 = DIRECTION ( 'NONE',  ( -0.000000000000000000, 1.000000000000000000, -0.000000000000000000 ) ) ;
#53 = FACE_OUTER_BOUND ( 'NONE', #36, .T. ) ;
#54 = LINE ( 'NONE', #319, #173 ) ;
#55 = AXIS2_PLACEMENT_3D ( 'NONE', #292, #90, #294 ) ;
#56 = DIRECTION ( 'NONE',  ( 0.000000000000000000, 0.000000000000000000, 1.000000000000000000 ) ) ;
#57 = AXIS2_PLACEMENT_3D ( 'NONE', #261, #116, #187 ) ;
#58 = UNCERTAINTY_MEASURE_WITH_UNIT (LENGTH_MEASURE( 1.000000000000000082E-05 ), #301, 'distance_accuracy_value', 'NONE');
#59 = PRODUCT_CONTEXT ( 'NONE', #171, 'mechanical' ) ;
#60 = VECTOR ( 'NONE', #68, 1000.000000000000000 ) ;
#61 = DIRECTION ( 'NONE',  ( -0.000000000000000000, 1.000000000000000000, -0.000000000000000000 ) ) ;
#62 = COLOUR_RGB ( '',0.2509803921568627416, 0.2509803921568627416, 0.2509803921568627416 ) ;
#63 = EDGE_LOOP ( 'NONE', ( #289, #2 ) ) ;
#64 = DIRECTION ( 'NONE',  ( 0.000000000000000000, 0.000000000000000000, 1.000000000000000000 ) ) ;
#65 = DIRECTION ( 'NONE',  ( 0.000000000000000000, -1.000000000000000000, 0.000000000000000000 ) ) ;
#66 = CONICAL_SURFACE ( 'NONE', #253, 1.000000000000000888, 0.7853981633974463916 ) ;
#67 = CARTESIAN_POINT ( 'NONE',  ( 0.000000000000000000, 14.48674418604650782, 0.000000000000000000 ) ) ;
#68 = DIRECTION ( 'NONE',  ( -0.000000000000000000, 1.000000000000000000, -0.000000000000000000 ) ) ;
#69 = CARTESIAN_POINT ( 'NONE',  ( 0.000000000000000000, 0.5000000000000004441, 0.000000000000000000 ) ) ;
#70 = CIRCLE ( 'NONE', #214, 1.000000000000001332 ) ;
#71 = AXIS2_PLACEMENT_3D ( 'NONE', #259, #316, #16 ) ;
#72 = FILL_AREA_STYLE ('',( #213 ) ) ;
#73 = EDGE_LOOP ( 'NONE', ( #221, #14, #229, #81 ) ) ;
#74 = FILL_AREA_STYLE_COLOUR ( '', #304 ) ;
#75 = ADVANCED_FACE ( 'NONE', ( #313 ), #45, .T. ) ;
#76 = CIRCLE ( 'NONE', #176, 1.000000000000001332 ) ;
#77 = ADVANCED_FACE ( 'NONE', ( #169 ), #226, .F. ) ;
#78 = EDGE_CURVE ( 'NONE', #203, #175, #54, .T. ) ;
#79 = CYLINDRICAL_SURFACE ( 'NONE', #140, 1.000000000000001554 ) ;
#80 = ORIENTED_EDGE ( 'NONE', *, *, #110, .T. ) ;
#81 = ORIENTED_EDGE ( 'NONE', *, *, #83, .F. ) ;
#82 = MECHANICAL_DESIGN_GEOMETRIC_PRESENTATION_REPRESENTATION (  '', ( #198 ), #296 ) ;
#83 = EDGE_CURVE ( 'NONE', #175, #191, #300, .T. ) ;
#84 = FACE_OUTER_BOUND ( 'NONE', #73, .T. ) ;
#85 = AXIS2_PLACEMENT_3D ( 'NONE', #115, #263, #117 ) ;
#86 = ORIENTED_EDGE ( 'NONE', *, *, #133, .F. ) ;
#87 = UNCERTAINTY_MEASURE_WITH_UNIT (LENGTH_MEASURE( 1.000000000000000082E-05 ), #12, 'distance_accuracy_value', 'NONE');
#88 = DIRECTION ( 'NONE',  ( 0.000000000000000000, 0.000000000000000000, -1.000000000000000000 ) ) ;
#89 = CARTESIAN_POINT ( 'NONE',  ( 1.224646799147355179E-16, 0.5000000000000004441, -1.000000000000001554 ) ) ;
#90 = DIRECTION ( 'NONE',  ( -0.000000000000000000, 1.000000000000000000, -0.000000000000000000 ) ) ;
#91 = AXIS2_PLACEMENT_3D ( 'NONE', #192, #273, #6 ) ;
#92 = DIRECTION ( 'NONE',  ( 0.000000000000000000, 0.000000000000000000, 1.000000000000000000 ) ) ;
#93 = CIRCLE ( 'NONE', #181, 1.500000000000001332 ) ;
#94 = ORIENTED_EDGE ( 'NONE', *, *, #308, .F. ) ;
#95 = SURFACE_STYLE_USAGE ( .BOTH. , #3 ) ;
#96 = AXIS2_PLACEMENT_3D ( 'NONE', #141, #65, #235 ) ;
#97 = CARTESIAN_POINT ( 'NONE',  ( 0.000000000000000000, 4.000000000000000000, 0.000000000000000000 ) ) ;
#98 = ORIENTED_EDGE ( 'NONE', *, *, #251, .F. ) ;
#99 = CARTESIAN_POINT ( 'NONE',  ( 1.836970198721031660E-16, 4.000000000000000000, -1.500000000000001554 ) ) ;
#100 = STYLED_ITEM ( 'NONE', ( #227 ), #297 ) ;
#101 = ADVANCED_FACE ( 'NONE', ( #312 ), #66, .T. ) ;
#102 = FACE_BOUND ( 'NONE', #163, .T. ) ;
#103 = ADVANCED_FACE ( 'NONE', ( #242 ), #262, .F. ) ;
#104 = VERTEX_POINT ( 'NONE', #288 ) ;
#105 = EDGE_LOOP ( 'NONE', ( #252, #314 ) ) ;
#106 = AXIS2_PLACEMENT_3D ( 'NONE', #246, #275, #197 ) ;
#107 = ORIENTED_EDGE ( 'NONE', *, *, #189, .T. ) ;
#108 = ORIENTED_EDGE ( 'NONE', *, *, #224, .T. ) ;
#109 = DIRECTION ( 'NONE',  ( 0.000000000000000000, -1.000000000000000000, 0.000000000000000000 ) ) ;
#110 = EDGE_CURVE ( 'NONE', #309, #104, #168, .T. ) ;
#111 = CARTESIAN_POINT ( 'NONE',  ( 0.000000000000000000, 0.5000000000000004441, 0.000000000000000000 ) ) ;
#112 = CARTESIAN_POINT ( 'NONE',  ( 0.000000000000000000, -3.061515884555946227E-17, 0.000000000000000000 ) ) ;
#113 = CYLINDRICAL_SURFACE ( 'NONE', #303, 1.000000000000001554 ) ;
#114 =( GEOMETRIC_REPRESENTATION_CONTEXT ( 3 ) GLOBAL_UNCERTAINTY_ASSIGNED_CONTEXT ( ( #58 ) ) GLOBAL_UNIT_ASSIGNED_CONTEXT ( ( #301, #145, #30 ) ) REPRESENTATION_CONTEXT ( 'NONE', 'WORKASPACE' ) );
#115 = CARTESIAN_POINT ( 'NONE',  ( 0.000000000000000000, 6.800000000000000711, 0.000000000000000000 ) ) ;
#116 = DIRECTION ( 'NONE',  ( -0.000000000000000000, 1.000000000000000000, 0.000000000000000000 ) ) ;
#117 = DIRECTION ( 'NONE',  ( 0.000000000000000000, 0.000000000000000000, -1.000000000000000000 ) ) ;
#118 = DIRECTION ( 'NONE',  ( -0.000000000000000000, 1.000000000000000000, -0.000000000000000000 ) ) ;
#119 = PRODUCT_RELATED_PRODUCT_CATEGORY ( 'part', '', ( #174 ) ) ;
#120 = VECTOR ( 'NONE', #209, 1000.000000000000000 ) ;
#121 = EDGE_LOOP ( 'NONE', ( #305, #108, #80, #98 ) ) ;
#122 = ORIENTED_EDGE ( 'NONE', *, *, #270, .T. ) ;
#123 = CARTESIAN_POINT ( 'NONE',  ( 0.000000000000000000, 0.5000000000000004441, 1.000000000000001554 ) ) ;
#124 = DIRECTION ( 'NONE',  ( 0.000000000000000000, 0.000000000000000000, 1.000000000000000000 ) ) ;
#125 = ADVANCED_FACE ( 'NONE', ( #13 ), #79, .T. ) ;
#126 = CARTESIAN_POINT ( 'NONE',  ( 0.000000000000000000, 4.000000000000000000, 0.000000000000000000 ) ) ;
#127 = ADVANCED_FACE ( 'NONE', ( #283, #102 ), #46, .F. ) ;
#128 = LINE ( 'NONE', #123, #306 ) ;
#129 = EDGE_LOOP ( 'NONE', ( #188, #31, #33, #267 ) ) ;
#130 = AXIS2_PLACEMENT_3D ( 'NONE', #167, #290, #64 ) ;
#131 = LINE ( 'NONE', #19, #60 ) ;
#132 = ORIENTED_EDGE ( 'NONE', *, *, #201, .F. ) ;
#133 = EDGE_CURVE ( 'NONE', #233, #104, #38, .T. ) ;
#134 = ORIENTED_EDGE ( 'NONE', *, *, #83, .T. ) ;
#135 = CARTESIAN_POINT ( 'NONE',  ( 0.000000000000000000, 0.5000000000000004441, 0.000000000000000000 ) ) ;
#136 = AXIS2_PLACEMENT_3D ( 'NONE', #206, #260, #186 ) ;
#137 = DIRECTION ( 'NONE',  ( 0.000000000000000000, -1.000000000000000000, 0.000000000000000000 ) ) ;
#138 = DIRECTION ( 'NONE',  ( -0.000000000000000000, 1.000000000000000000, -0.000000000000000000 ) ) ;
#139 = CARTESIAN_POINT ( 'NONE',  ( 1.224646799147355179E-16, 14.48674418604650782, -1.000000000000001554 ) ) ;
#140 = AXIS2_PLACEMENT_3D ( 'NONE', #67, #138, #164 ) ;
#141 = CARTESIAN_POINT ( 'NONE',  ( 0.000000000000000000, -3.061515884555946227E-17, 0.000000000000000000 ) ) ;
#142 = DIRECTION ( 'NONE',  ( -0.000000000000000000, 1.000000000000000000, -0.000000000000000000 ) ) ;
#143 = EDGE_LOOP ( 'NONE', ( #170, #295 ) ) ;
#144 = DIRECTION ( 'NONE',  ( 0.000000000000000000, 0.000000000000000000, 1.000000000000000000 ) ) ;
#145 =( NAMED_UNIT ( * ) PLANE_ANGLE_UNIT ( ) SI_UNIT ( $, .RADIAN. ) );
#146 = ORIENTED_EDGE ( 'NONE', *, *, #110, .F. ) ;
#147 =( GEOMETRIC_REPRESENTATION_CONTEXT ( 3 ) GLOBAL_UNCERTAINTY_ASSIGNED_CONTEXT ( ( #87 ) ) GLOBAL_UNIT_ASSIGNED_CONTEXT ( ( #12, #149, #148 ) ) REPRESENTATION_CONTEXT ( 'NONE', 'WORKASPACE' ) );
#148 =( NAMED_UNIT ( * ) SI_UNIT ( $, .STERADIAN. ) SOLID_ANGLE_UNIT ( ) );
#149 =( NAMED_UNIT ( * ) PLANE_ANGLE_UNIT ( ) SI_UNIT ( $, .RADIAN. ) );
#150 = EDGE_CURVE ( 'NONE', #203, #21, #219, .T. ) ;
#151 = VECTOR ( 'NONE', #142, 1000.000000000000000 ) ;
#152 = FACE_OUTER_BOUND ( 'NONE', #220, .T. ) ;
#153 = ORIENTED_EDGE ( 'NONE', *, *, #270, .F. ) ;
#154 = FILL_AREA_STYLE ('',( #74 ) ) ;
#155 = PRESENTATION_LAYER_ASSIGNMENT (  '', '', ( #198 ) ) ;
#156 = ORIENTED_EDGE ( 'NONE', *, *, #249, .T. ) ;
#157 = VECTOR ( 'NONE', #320, 1000.000000000000000 ) ;
#158 = DIRECTION ( 'NONE',  ( 0.000000000000000000, -0.000000000000000000, -1.000000000000000000 ) ) ;
#159 = EDGE_CURVE ( 'NONE', #26, #309, #179, .T. ) ;
#160 = ORIENTED_EDGE ( 'NONE', *, *, #133, .T. ) ;
#161 = CARTESIAN_POINT ( 'NONE',  ( 0.000000000000000000, -3.061515884555946227E-17, 0.4999999999999978351 ) ) ;
#162 = CARTESIAN_POINT ( 'NONE',  ( 9.184850993605145972E-17, -3.061515884555946227E-17, -0.4999999999999978351 ) ) ;
#163 = EDGE_LOOP ( 'NONE', ( #307, #107 ) ) ;
#164 = DIRECTION ( 'NONE',  ( 0.000000000000000000, 0.000000000000000000, 1.000000000000000000 ) ) ;
#165 = AXIS2_PLACEMENT_3D ( 'NONE', #42, #285, #282 ) ;
#166 = DIRECTION ( 'NONE',  ( -0.000000000000000000, 1.000000000000000000, -0.000000000000000000 ) ) ;
#167 = CARTESIAN_POINT ( 'NONE',  ( 0.000000000000000000, 0.5000000000000004441, 0.000000000000000000 ) ) ;
#168 = CIRCLE ( 'NONE', #271, 1.500000000000001110 ) ;
#169 = FACE_OUTER_BOUND ( 'NONE', #105, .T. ) ;
#170 = ORIENTED_EDGE ( 'NONE', *, *, #241, .F. ) ;
#171 = APPLICATION_CONTEXT ( 'automotive_design' ) ;
#172 =( NAMED_UNIT ( * ) SI_UNIT ( $, .STERADIAN. ) SOLID_ANGLE_UNIT ( ) );
#173 = VECTOR ( 'NONE', #23, 1000.000000000000000 ) ;
#174 = PRODUCT ( 'INGUN_17990~2', 'INGUN_17990~2', '', ( #59 ) ) ;
#175 = VERTEX_POINT ( 'NONE', #89 ) ;
#176 = AXIS2_PLACEMENT_3D ( 'NONE', #238, #166, #92 ) ;
#177 = SURFACE_SIDE_STYLE ('',( #199 ) ) ;
#178 = EDGE_CURVE ( 'NONE', #175, #5, #8, .T. ) ;
#179 = LINE ( 'NONE', #47, #120 ) ;
#180 = EDGE_LOOP ( 'NONE', ( #196, #34, #268, #122 ) ) ;
#181 = AXIS2_PLACEMENT_3D ( 'NONE', #193, #118, #215 ) ;
#182 = LINE ( 'NONE', #247, #151 ) ;
#183 = DIRECTION ( 'NONE',  ( -0.000000000000000000, 1.000000000000000000, -0.000000000000000000 ) ) ;
#184 = AXIS2_PLACEMENT_3D ( 'NONE', #97, #302, #124 ) ;
#185 = EDGE_LOOP ( 'NONE', ( #156, #212, #94, #255 ) ) ;
#186 = DIRECTION ( 'NONE',  ( 0.000000000000000000, 0.000000000000000000, 1.000000000000000000 ) ) ;
#187 = DIRECTION ( 'NONE',  ( 0.000000000000000000, 0.000000000000000000, 1.000000000000000000 ) ) ;
#188 = ORIENTED_EDGE ( 'NONE', *, *, #150, .F. ) ;
#189 = EDGE_CURVE ( 'NONE', #5, #280, #76, .T. ) ;
#190 = DIRECTION ( 'NONE',  ( 0.000000000000000000, 0.7071067811865452413, 0.7071067811865497932 ) ) ;
#191 = VERTEX_POINT ( 'NONE', #210 ) ;
#192 = CARTESIAN_POINT ( 'NONE',  ( 0.000000000000000000, 6.299999999999998046, 0.000000000000000000 ) ) ;
#193 = CARTESIAN_POINT ( 'NONE',  ( 0.000000000000000000, 4.000000000000000000, 0.000000000000000000 ) ) ;
#194 = LINE ( 'NONE', #7, #250 ) ;
#195 = AXIS2_PLACEMENT_3D ( 'NONE', #69, #217, #298 ) ;
#196 = ORIENTED_EDGE ( 'NONE', *, *, #224, .F. ) ;
#197 = DIRECTION ( 'NONE',  ( 1.000000000000000000, 0.000000000000000000, 0.000000000000000000 ) ) ;
#198 = STYLED_ITEM ( 'NONE', ( #202 ), #287 ) ;
#199 = SURFACE_STYLE_FILL_AREA ( #154 ) ;
#200 = CARTESIAN_POINT ( 'NONE',  ( 0.000000000000000000, 6.800000000000000711, 0.000000000000000000 ) ) ;
#201 = EDGE_CURVE ( 'NONE', #233, #26, #1, .T. ) ;
#202 = PRESENTATION_STYLE_ASSIGNMENT (( #95 ) ) ;
#203 = VERTEX_POINT ( 'NONE', #162 ) ;
#204 = DIRECTION ( 'NONE',  ( 0.000000000000000000, 0.000000000000000000, 1.000000000000000000 ) ) ;
#205 = DIRECTION ( 'NONE',  ( 0.000000000000000000, 0.000000000000000000, 1.000000000000000000 ) ) ;
#206 = CARTESIAN_POINT ( 'NONE',  ( 1.000000000000001776, -3.061515884555946227E-17, 0.000000000000000000 ) ) ;
#207 = CARTESIAN_POINT ( 'NONE',  ( 1.224646799147354440E-16, 6.800000000000000711, 1.000000000000000888 ) ) ;
#208 = ORIENTED_EDGE ( 'NONE', *, *, #159, .T. ) ;
#209 = DIRECTION ( 'NONE',  ( 0.000000000000000000, -0.7071067811865489050, -0.7071067811865462405 ) ) ;
#210 = CARTESIAN_POINT ( 'NONE',  ( 0.000000000000000000, 0.5000000000000004441, 1.000000000000001554 ) ) ;
#211 = FACE_OUTER_BOUND ( 'NONE', #121, .T. ) ;
#212 = ORIENTED_EDGE ( 'NONE', *, *, #178, .T. ) ;
#213 = FILL_AREA_STYLE_COLOUR ( '', #62 ) ;
#214 = AXIS2_PLACEMENT_3D ( 'NONE', #126, #52, #144 ) ;
#215 = DIRECTION ( 'NONE',  ( 0.000000000000000000, 0.000000000000000000, 1.000000000000000000 ) ) ;
#216 = ORIENTED_EDGE ( 'NONE', *, *, #15, .F. ) ;
#217 = DIRECTION ( 'NONE',  ( -0.000000000000000000, 1.000000000000000000, -0.000000000000000000 ) ) ;
#218 = ADVANCED_FACE ( 'NONE', ( #53 ), #32, .T. ) ;
#219 = CIRCLE ( 'NONE', #96, 0.4999999999999978351 ) ;
#220 = EDGE_LOOP ( 'NONE', ( #237, #134, #257, #18 ) ) ;
#221 = ORIENTED_EDGE ( 'NONE', *, *, #78, .F. ) ;
#222 = AXIS2_PLACEMENT_3D ( 'NONE', #111, #61, #281 ) ;
#223 = APPLICATION_CONTEXT ( 'automotive_design' ) ;
#224 = EDGE_CURVE ( 'NONE', #279, #309, #131, .T. ) ;
#225 = CONICAL_SURFACE ( 'NONE', #222, 1.000000000000001554, 0.7853981633974514986 ) ;
#226 = PLANE ( 'NONE',  #43 ) ;
#227 = PRESENTATION_STYLE_ASSIGNMENT (( #35 ) ) ;
#228 = CARTESIAN_POINT ( 'NONE',  ( 9.413235770439772863E-16, 6.800000000000000711, 0.000000000000000000 ) ) ;
#229 = ORIENTED_EDGE ( 'NONE', *, *, #264, .T. ) ;
#230 = VERTEX_POINT ( 'NONE', #272 ) ;
#231 = CARTESIAN_POINT ( 'NONE',  ( 0.000000000000000000, 14.48674418604650782, 0.000000000000000000 ) ) ;
#232 = PRODUCT_DEFINITION_FORMATION_WITH_SPECIFIED_SOURCE ( 'ANY', '', #174, .NOT_KNOWN. ) ;
#233 = VERTEX_POINT ( 'NONE', #50 ) ;
#234 = EDGE_CURVE ( 'NONE', #191, #280, #194, .T. ) ;
#235 = DIRECTION ( 'NONE',  ( 0.000000000000000000, 0.000000000000000000, 1.000000000000000000 ) ) ;
#236 = SURFACE_STYLE_FILL_AREA ( #72 ) ;
#237 = ORIENTED_EDGE ( 'NONE', *, *, #178, .F. ) ;
#238 = CARTESIAN_POINT ( 'NONE',  ( 0.000000000000000000, 4.000000000000000000, 0.000000000000000000 ) ) ;
#239 = AXIS2_PLACEMENT_3D ( 'NONE', #112, #310, #204 ) ;
#240 =( LENGTH_UNIT ( ) NAMED_UNIT ( * ) SI_UNIT ( .MILLI., .METRE. ) );
#241 = EDGE_CURVE ( 'NONE', #230, #279, #93, .T. ) ;
#242 = FACE_OUTER_BOUND ( 'NONE', #63, .T. ) ;
#243 = CARTESIAN_POINT ( 'NONE',  ( 1.836970198721031167E-16, 6.299999999999998046, -1.500000000000001110 ) ) ;
#244 = FACE_OUTER_BOUND ( 'NONE', #129, .T. ) ;
#245 = EDGE_LOOP ( 'NONE', ( #86, #216, #208, #153 ) ) ;
#246 = CARTESIAN_POINT ( 'NONE',  ( 0.000000000000000000, 0.000000000000000000, 0.000000000000000000 ) ) ;
#247 = CARTESIAN_POINT ( 'NONE',  ( 0.000000000000000000, 14.48674418604650782, 1.500000000000001110 ) ) ;
#248 = ADVANCED_FACE ( 'NONE', ( #211 ), #266, .T. ) ;
#249 = EDGE_CURVE ( 'NONE', #191, #175, #277, .T. ) ;
#250 = VECTOR ( 'NONE', #265, 1000.000000000000000 ) ;
#251 = EDGE_CURVE ( 'NONE', #230, #104, #182, .T. ) ;
#252 = ORIENTED_EDGE ( 'NONE', *, *, #15, .T. ) ;
#253 = AXIS2_PLACEMENT_3D ( 'NONE', #200, #137, #291 ) ;
#254 = CIRCLE ( 'NONE', #91, 1.500000000000001110 ) ;
#255 = ORIENTED_EDGE ( 'NONE', *, *, #234, .F. ) ;
#256 = CARTESIAN_POINT ( 'NONE',  ( 1.224646799147355179E-16, 4.000000000000000000, -1.000000000000001332 ) ) ;
#257 = ORIENTED_EDGE ( 'NONE', *, *, #234, .T. ) ;
#258 = CLOSED_SHELL ( 'NONE', ( #218, #9, #125, #248, #77, #75, #127, #51, #103, #11, #101 ) ) ;
#259 = CARTESIAN_POINT ( 'NONE',  ( 0.000000000000000000, 14.48674418604650782, 0.000000000000000000 ) ) ;
#260 = DIRECTION ( 'NONE',  ( -0.000000000000000000, 1.000000000000000000, 0.000000000000000000 ) ) ;
#261 = CARTESIAN_POINT ( 'NONE',  ( 1.500000000000001332, 4.000000000000000000, 0.000000000000000000 ) ) ;
#262 = PLANE ( 'NONE',  #136 ) ;
#263 = DIRECTION ( 'NONE',  ( 0.000000000000000000, -1.000000000000000000, 0.000000000000000000 ) ) ;
#264 = EDGE_CURVE ( 'NONE', #21, #191, #128, .T. ) ;
#265 = DIRECTION ( 'NONE',  ( -0.000000000000000000, 1.000000000000000000, -0.000000000000000000 ) ) ;
#266 = CYLINDRICAL_SURFACE ( 'NONE', #27, 1.500000000000001110 ) ;
#267 = ORIENTED_EDGE ( 'NONE', *, *, #264, .F. ) ;
#268 = ORIENTED_EDGE ( 'NONE', *, *, #251, .T. ) ;
#269 = CARTESIAN_POINT ( 'NONE',  ( 0.000000000000000000, 14.48674418604650782, 0.000000000000000000 ) ) ;
#270 = EDGE_CURVE ( 'NONE', #104, #309, #254, .T. ) ;
#271 = AXIS2_PLACEMENT_3D ( 'NONE', #318, #20, #88 ) ;
#272 = CARTESIAN_POINT ( 'NONE',  ( 0.000000000000000000, 4.000000000000000000, 1.500000000000001332 ) ) ;
#273 = DIRECTION ( 'NONE',  ( 0.000000000000000000, -1.000000000000000000, 0.000000000000000000 ) ) ;
#274 = CARTESIAN_POINT ( 'NONE',  ( 0.000000000000000000, 4.000000000000000000, 1.000000000000001332 ) ) ;
#275 = DIRECTION ( 'NONE',  ( 0.000000000000000000, 0.000000000000000000, 1.000000000000000000 ) ) ;
#276 = APPLICATION_PROTOCOL_DEFINITION ( 'draft international standard', 'automotive_design', 1998, #223 ) ;
#277 = CIRCLE ( 'NONE', #195, 1.000000000000001554 ) ;
#278 = AXIS2_PLACEMENT_3D ( 'NONE', #135, #183, #44 ) ;
#279 = VERTEX_POINT ( 'NONE', #99 ) ;
#280 = VERTEX_POINT ( 'NONE', #274 ) ;
#281 = DIRECTION ( 'NONE',  ( 0.000000000000000000, 0.000000000000000000, 1.000000000000000000 ) ) ;
#282 = DIRECTION ( 'NONE',  ( 0.000000000000000000, 0.000000000000000000, -1.000000000000000000 ) ) ;
#283 = FACE_OUTER_BOUND ( 'NONE', #143, .T. ) ;
#284 = CIRCLE ( 'NONE', #165, 1.000000000000000888 ) ;
#285 = DIRECTION ( 'NONE',  ( -0.000000000000000000, 1.000000000000000000, -0.000000000000000000 ) ) ;
#286 = MECHANICAL_DESIGN_GEOMETRIC_PRESENTATION_REPRESENTATION (  '', ( #100 ), #147 ) ;
#287 = MANIFOLD_SOLID_BREP ( 'Fase1', #258 ) ;
#288 = CARTESIAN_POINT ( 'NONE',  ( 0.000000000000000000, 6.299999999999998046, 1.500000000000001110 ) ) ;
#289 = ORIENTED_EDGE ( 'NONE', *, *, #22, .T. ) ;
#290 = DIRECTION ( 'NONE',  ( -0.000000000000000000, 1.000000000000000000, -0.000000000000000000 ) ) ;
#291 = DIRECTION ( 'NONE',  ( 0.000000000000000000, 0.000000000000000000, -1.000000000000000000 ) ) ;
#292 = CARTESIAN_POINT ( 'NONE',  ( 0.000000000000000000, 6.800000000000000711, 0.000000000000000000 ) ) ;
#293 = VECTOR ( 'NONE', #48, 1000.000000000000000 ) ;
#294 = DIRECTION ( 'NONE',  ( 0.000000000000000000, 0.000000000000000000, -1.000000000000000000 ) ) ;
#295 = ORIENTED_EDGE ( 'NONE', *, *, #315, .F. ) ;
#296 =( GEOMETRIC_REPRESENTATION_CONTEXT ( 3 ) GLOBAL_UNCERTAINTY_ASSIGNED_CONTEXT ( ( #41 ) ) GLOBAL_UNIT_ASSIGNED_CONTEXT ( ( #240, #299, #172 ) ) REPRESENTATION_CONTEXT ( 'NONE', 'WORKASPACE' ) );
#297 = ADVANCED_BREP_SHAPE_REPRESENTATION ( 'INGUN_17990~2', ( #287, #106 ), #114 ) ;
#298 = DIRECTION ( 'NONE',  ( 0.000000000000000000, 0.000000000000000000, 1.000000000000000000 ) ) ;
#299 =( NAMED_UNIT ( * ) PLANE_ANGLE_UNIT ( ) SI_UNIT ( $, .RADIAN. ) );
#300 = CIRCLE ( 'NONE', #130, 1.000000000000001554 ) ;
#301 =( LENGTH_UNIT ( ) NAMED_UNIT ( * ) SI_UNIT ( .MILLI., .METRE. ) );
#302 = DIRECTION ( 'NONE',  ( -0.000000000000000000, 1.000000000000000000, -0.000000000000000000 ) ) ;
#303 = AXIS2_PLACEMENT_3D ( 'NONE', #231, #40, #205 ) ;
#304 = COLOUR_RGB ( '',0.2509803921568627416, 0.2509803921568627416, 0.2509803921568627416 ) ;
#305 = ORIENTED_EDGE ( 'NONE', *, *, #241, .T. ) ;
#306 = VECTOR ( 'NONE', #190, 1000.000000000000000 ) ;
#307 = ORIENTED_EDGE ( 'NONE', *, *, #308, .T. ) ;
#308 = EDGE_CURVE ( 'NONE', #280, #5, #70, .T. ) ;
#309 = VERTEX_POINT ( 'NONE', #243 ) ;
#310 = DIRECTION ( 'NONE',  ( 0.000000000000000000, -1.000000000000000000, 0.000000000000000000 ) ) ;
#311 = PRODUCT_DEFINITION ( 'UNKNOWN', '', #232, #317 ) ;
#312 = FACE_OUTER_BOUND ( 'NONE', #245, .T. ) ;
#313 = FACE_OUTER_BOUND ( 'NONE', #180, .T. ) ;
#314 = ORIENTED_EDGE ( 'NONE', *, *, #201, .T. ) ;
#315 = EDGE_CURVE ( 'NONE', #279, #230, #4, .T. ) ;
#316 = DIRECTION ( 'NONE',  ( -0.000000000000000000, 1.000000000000000000, -0.000000000000000000 ) ) ;
#317 = PRODUCT_DEFINITION_CONTEXT ( 'detailed design', #223, 'design' ) ;
#318 = CARTESIAN_POINT ( 'NONE',  ( 0.000000000000000000, 6.299999999999998046, 0.000000000000000000 ) ) ;
#319 = CARTESIAN_POINT ( 'NONE',  ( 1.224646799147355179E-16, 0.5000000000000004441, -1.000000000000001554 ) ) ;
#320 = DIRECTION ( 'NONE',  ( -0.000000000000000000, 1.000000000000000000, -0.000000000000000000 ) ) ;
ENDSEC;
END-ISO-10303-21;
