ISO-10303-21;
HEADER;
FILE_DESCRIPTION (( 'STEP AP214' ),
    '1' );
FILE_NAME ('17340~1.STEP',
    '2019-07-03T08:50:19',
    ( '' ),
    ( '' ),
    'SwSTEP 2.0',
    'SolidWorks 2018',
    '' );
FILE_SCHEMA (( 'AUTOMOTIVE_DESIGN' ));
ENDSEC;

DATA;
#1 = ORIENTED_EDGE ( 'NONE', *, *, #261, .T. ) ;
#2 = ORIENTED_EDGE ( 'NONE', *, *, #311, .F. ) ;
#3 = AXIS2_PLACEMENT_3D ( 'NONE', #342, #25, #285 ) ;
#4 = ORIENTED_EDGE ( 'NONE', *, *, #22, .F. ) ;
#5 = CYLINDRICAL_SURFACE ( 'NONE', #200, 1.449999999999999956 ) ;
#6 = ORIENTED_EDGE ( 'NONE', *, *, #365, .F. ) ;
#7 = AXIS2_PLACEMENT_3D ( 'NONE', #229, #344, #198 ) ;
#8 = CIRCLE ( 'NONE', #255, 3.000000000000000444 ) ;
#9 = PLANE ( 'NONE',  #332 ) ;
#10 = EDGE_CURVE ( 'NONE', #210, #283, #224, .T. ) ;
#11 = CARTESIAN_POINT ( 'NONE',  ( 0.0000000000000000000, 16.00000000000000000, 0.0000000000000000000 ) ) ;
#12 = DIRECTION ( 'NONE',  ( 0.0000000000000000000, 1.000000000000000000, 0.0000000000000000000 ) ) ;
#13 = COLOUR_RGB ( '',1.000000000000000000, 1.000000000000000000, 1.000000000000000000 ) ;
#14 = CARTESIAN_POINT ( 'NONE',  ( 0.0000000000000000000, 0.0000000000000000000, -1.250000000000000222 ) ) ;
#15 = PLANE ( 'NONE',  #71 ) ;
#16 = MANIFOLD_SOLID_BREP ( 'Fase1', #309 ) ;
#17 = DIRECTION ( 'NONE',  ( 0.0000000000000000000, 0.0000000000000000000, 1.000000000000000000 ) ) ;
#18 = CYLINDRICAL_SURFACE ( 'NONE', #310, 3.000000000000000444 ) ;
#19 = DIRECTION ( 'NONE',  ( -0.0000000000000000000, -1.000000000000000000, -0.0000000000000000000 ) ) ;
#20 = ORIENTED_EDGE ( 'NONE', *, *, #370, .F. ) ;
#21 = ADVANCED_FACE ( 'NONE', ( #34 ), #18, .T. ) ;
#22 = EDGE_CURVE ( 'NONE', #209, #297, #44, .T. ) ;
#23 = LINE ( 'NONE', #57, #262 ) ;
#24 = CARTESIAN_POINT ( 'NONE',  ( 0.0000000000000000000, 16.00000000000000000, 0.0000000000000000000 ) ) ;
#25 = DIRECTION ( 'NONE',  ( 0.0000000000000000000, 1.000000000000000000, 0.0000000000000000000 ) ) ;
#26 = DIRECTION ( 'NONE',  ( 0.0000000000000000000, 1.000000000000000000, 0.0000000000000000000 ) ) ;
#27 = AXIS2_PLACEMENT_3D ( 'NONE', #167, #142, #305 ) ;
#28 = VERTEX_POINT ( 'NONE', #14 ) ;
#29 = EDGE_CURVE ( 'NONE', #30, #58, #208, .T. ) ;
#30 = VERTEX_POINT ( 'NONE', #159 ) ;
#31 = ORIENTED_EDGE ( 'NONE', *, *, #370, .T. ) ;
#32 = ADVANCED_BREP_SHAPE_REPRESENTATION ( '17340~1', ( #16, #228 ), #112 ) ;
#33 = DIRECTION ( 'NONE',  ( 0.0000000000000000000, 0.0000000000000000000, 1.000000000000000000 ) ) ;
#34 = FACE_OUTER_BOUND ( 'NONE', #281, .T. ) ;
#35 = ORIENTED_EDGE ( 'NONE', *, *, #10, .T. ) ;
#36 = DIRECTION ( 'NONE',  ( 0.0000000000000000000, 1.000000000000000000, 0.0000000000000000000 ) ) ;
#37 = AXIS2_PLACEMENT_3D ( 'NONE', #82, #26, #111 ) ;
#38 = FACE_OUTER_BOUND ( 'NONE', #72, .T. ) ;
#39 = MECHANICAL_DESIGN_GEOMETRIC_PRESENTATION_REPRESENTATION (  '', ( #256 ), #235 ) ;
#40 = EDGE_LOOP ( 'NONE', ( #203, #116, #270, #20 ) ) ;
#41 = DIRECTION ( 'NONE',  ( 0.0000000000000000000, 0.0000000000000000000, 1.000000000000000000 ) ) ;
#42 = CARTESIAN_POINT ( 'NONE',  ( 0.0000000000000000000, 20.00000000000000000, 0.0000000000000000000 ) ) ;
#43 = VECTOR ( 'NONE', #100, 1000.000000000000000 ) ;
#44 = LINE ( 'NONE', #359, #202 ) ;
#45 = CARTESIAN_POINT ( 'NONE',  ( 0.0000000000000000000, 8.000000000000000000, 0.0000000000000000000 ) ) ;
#46 = ORIENTED_EDGE ( 'NONE', *, *, #265, .T. ) ;
#47 = AXIS2_PLACEMENT_3D ( 'NONE', #24, #88, #33 ) ;
#48 = DIRECTION ( 'NONE',  ( 0.0000000000000000000, 1.000000000000000000, 0.0000000000000000000 ) ) ;
#49 = EDGE_CURVE ( 'NONE', #74, #283, #205, .T. ) ;
#50 = SHAPE_DEFINITION_REPRESENTATION ( #86, #32 ) ;
#51 = CARTESIAN_POINT ( 'NONE',  ( 0.0000000000000000000, 16.00000000000000000, 1.449999999999999956 ) ) ;
#52 = ORIENTED_EDGE ( 'NONE', *, *, #301, .F. ) ;
#53 = CARTESIAN_POINT ( 'NONE',  ( 0.0000000000000000000, 20.00000000000000000, 0.0000000000000000000 ) ) ;
#54 = APPLICATION_CONTEXT ( 'automotive_design' ) ;
#55 = ORIENTED_EDGE ( 'NONE', *, *, #318, .F. ) ;
#56 = VERTEX_POINT ( 'NONE', #76 ) ;
#57 = CARTESIAN_POINT ( 'NONE',  ( 0.0000000000000000000, 20.00000000000000000, -3.000000000000000444 ) ) ;
#58 = VERTEX_POINT ( 'NONE', #357 ) ;
#59 = EDGE_CURVE ( 'NONE', #289, #56, #69, .T. ) ;
#60 = PRODUCT ( '17340~1', '17340~1', '', ( #282 ) ) ;
#61 = DIRECTION ( 'NONE',  ( 0.0000000000000000000, 1.000000000000000000, 0.0000000000000000000 ) ) ;
#62 = LINE ( 'NONE', #170, #223 ) ;
#63 = ORIENTED_EDGE ( 'NONE', *, *, #130, .F. ) ;
#64 = AXIS2_PLACEMENT_3D ( 'NONE', #216, #12, #17 ) ;
#65 = CARTESIAN_POINT ( 'NONE',  ( 1.530808498934191817E-16, 8.000000000000000000, -1.250000000000000222 ) ) ;
#66 = ORIENTED_EDGE ( 'NONE', *, *, #347, .T. ) ;
#67 = CARTESIAN_POINT ( 'NONE',  ( 1.775737858763661916E-16, 16.00000000000000000, -1.449999999999999956 ) ) ;
#68 = CIRCLE ( 'NONE', #102, 1.449999999999999956 ) ;
#69 = CIRCLE ( 'NONE', #47, 1.449999999999999956 ) ;
#70 = CARTESIAN_POINT ( 'NONE',  ( 0.0000000000000000000, 14.50000000000000000, 0.0000000000000000000 ) ) ;
#71 = AXIS2_PLACEMENT_3D ( 'NONE', #268, #294, #155 ) ;
#72 = EDGE_LOOP ( 'NONE', ( #352, #90, #242, #149 ) ) ;
#73 = DIRECTION ( 'NONE',  ( 0.0000000000000000000, 0.0000000000000000000, -1.000000000000000000 ) ) ;
#74 = VERTEX_POINT ( 'NONE', #272 ) ;
#75 = ORIENTED_EDGE ( 'NONE', *, *, #347, .F. ) ;
#76 = CARTESIAN_POINT ( 'NONE',  ( 1.775737858763661916E-16, 16.00000000000000000, -1.449999999999999956 ) ) ;
#77 = AXIS2_PLACEMENT_3D ( 'NONE', #87, #61, #179 ) ;
#78 = ADVANCED_FACE ( 'NONE', ( #286 ), #351, .F. ) ;
#79 = FACE_OUTER_BOUND ( 'NONE', #360, .T. ) ;
#80 = ORIENTED_EDGE ( 'NONE', *, *, #318, .T. ) ;
#81 =( NAMED_UNIT ( * ) PLANE_ANGLE_UNIT ( ) SI_UNIT ( $, .RADIAN. ) );
#82 = CARTESIAN_POINT ( 'NONE',  ( 0.0000000000000000000, 19.50000000000000355, 0.0000000000000000000 ) ) ;
#83 = AXIS2_PLACEMENT_3D ( 'NONE', #302, #137, #165 ) ;
#84 = CYLINDRICAL_SURFACE ( 'NONE', #166, 1.250000000000000222 ) ;
#85 = ORIENTED_EDGE ( 'NONE', *, *, #246, .F. ) ;
#86 = PRODUCT_DEFINITION_SHAPE ( 'NONE', 'NONE',  #169 ) ;
#87 = CARTESIAN_POINT ( 'NONE',  ( 0.0000000000000000000, 8.000000000000000000, 0.0000000000000000000 ) ) ;
#88 = DIRECTION ( 'NONE',  ( 0.0000000000000000000, 1.000000000000000000, 0.0000000000000000000 ) ) ;
#89 = CIRCLE ( 'NONE', #172, 3.000000000000000444 ) ;
#90 = ORIENTED_EDGE ( 'NONE', *, *, #49, .T. ) ;
#91 = ORIENTED_EDGE ( 'NONE', *, *, #265, .F. ) ;
#92 = DIRECTION ( 'NONE',  ( -0.0000000000000000000, -1.000000000000000000, -0.0000000000000000000 ) ) ;
#93 = FACE_OUTER_BOUND ( 'NONE', #304, .T. ) ;
#94 = EDGE_CURVE ( 'NONE', #314, #317, #280, .T. ) ;
#95 = CARTESIAN_POINT ( 'NONE',  ( 0.0000000000000000000, 8.000000000000000000, 0.0000000000000000000 ) ) ;
#96 = ADVANCED_FACE ( 'NONE', ( #358, #196 ), #9, .T. ) ;
#97 = DIRECTION ( 'NONE',  ( 0.0000000000000000000, 1.000000000000000000, 0.0000000000000000000 ) ) ;
#98 = UNCERTAINTY_MEASURE_WITH_UNIT (LENGTH_MEASURE( 1.000000000000000082E-05 ), #249, 'distance_accuracy_value', 'NONE');
#99 = SURFACE_STYLE_FILL_AREA ( #113 ) ;
#100 = DIRECTION ( 'NONE',  ( -0.0000000000000000000, -1.000000000000000000, -0.0000000000000000000 ) ) ;
#101 = ORIENTED_EDGE ( 'NONE', *, *, #261, .F. ) ;
#102 = AXIS2_PLACEMENT_3D ( 'NONE', #160, #105, #364 ) ;
#103 = EDGE_LOOP ( 'NONE', ( #63, #199, #31, #109 ) ) ;
#104 = ADVANCED_FACE ( 'NONE', ( #114 ), #157, .T. ) ;
#105 = DIRECTION ( 'NONE',  ( 0.0000000000000000000, 1.000000000000000000, 0.0000000000000000000 ) ) ;
#106 = CARTESIAN_POINT ( 'NONE',  ( 0.0000000000000000000, 14.50000000000000000, 3.000000000000000000 ) ) ;
#107 = DIRECTION ( 'NONE',  ( 0.0000000000000000000, 0.0000000000000000000, 1.000000000000000000 ) ) ;
#108 = DIRECTION ( 'NONE',  ( 0.0000000000000000000, 0.0000000000000000000, -1.000000000000000000 ) ) ;
#109 = ORIENTED_EDGE ( 'NONE', *, *, #10, .F. ) ;
#110 = APPLICATION_PROTOCOL_DEFINITION ( 'draft international standard', 'automotive_design', 1998, #54 ) ;
#111 = DIRECTION ( 'NONE',  ( 0.0000000000000000000, 0.0000000000000000000, 1.000000000000000000 ) ) ;
#112 =( GEOMETRIC_REPRESENTATION_CONTEXT ( 3 ) GLOBAL_UNCERTAINTY_ASSIGNED_CONTEXT ( ( #98 ) ) GLOBAL_UNIT_ASSIGNED_CONTEXT ( ( #249, #81, #251 ) ) REPRESENTATION_CONTEXT ( 'NONE', 'WORKASPACE' ) );
#113 = FILL_AREA_STYLE ('',( #194 ) ) ;
#114 = FACE_OUTER_BOUND ( 'NONE', #145, .T. ) ;
#115 = SURFACE_STYLE_USAGE ( .BOTH. , #168 ) ;
#116 = ORIENTED_EDGE ( 'NONE', *, *, #130, .T. ) ;
#117 =( NAMED_UNIT ( * ) PLANE_ANGLE_UNIT ( ) SI_UNIT ( $, .RADIAN. ) );
#118 = AXIS2_PLACEMENT_3D ( 'NONE', #135, #222, #107 ) ;
#119 = EDGE_CURVE ( 'NONE', #283, #210, #232, .T. ) ;
#120 = CYLINDRICAL_SURFACE ( 'NONE', #150, 3.000000000000000444 ) ;
#121 = VECTOR ( 'NONE', #162, 1000.000000000000114 ) ;
#122 = EDGE_LOOP ( 'NONE', ( #316, #189, #80, #133 ) ) ;
#123 = VECTOR ( 'NONE', #126, 1000.000000000000227 ) ;
#124 = CARTESIAN_POINT ( 'NONE',  ( 0.0000000000000000000, 19.50000000000000355, 0.0000000000000000000 ) ) ;
#125 = DIRECTION ( 'NONE',  ( -0.0000000000000000000, -1.000000000000000000, -0.0000000000000000000 ) ) ;
#126 = DIRECTION ( 'NONE',  ( 3.183756821211565729E-17, 0.9656157585206696092, -0.2599734734478725828 ) ) ;
#127 = CONICAL_SURFACE ( 'NONE', #3, 1.250000000000000222, 0.2629947316809194691 ) ;
#128 = DIRECTION ( 'NONE',  ( 0.0000000000000000000, 0.0000000000000000000, -1.000000000000000000 ) ) ;
#129 = AXIS2_PLACEMENT_3D ( 'NONE', #45, #333, #163 ) ;
#130 = EDGE_CURVE ( 'NONE', #317, #210, #328, .T. ) ;
#131 = DIRECTION ( 'NONE',  ( -0.0000000000000000000, -1.000000000000000000, -0.0000000000000000000 ) ) ;
#132 = CARTESIAN_POINT ( 'NONE',  ( 0.0000000000000000000, 20.00000000000000000, 1.950000000000003508 ) ) ;
#133 = ORIENTED_EDGE ( 'NONE', *, *, #246, .T. ) ;
#134 =( GEOMETRIC_REPRESENTATION_CONTEXT ( 3 ) GLOBAL_UNCERTAINTY_ASSIGNED_CONTEXT ( ( #267 ) ) GLOBAL_UNIT_ASSIGNED_CONTEXT ( ( #254, #117, #339 ) ) REPRESENTATION_CONTEXT ( 'NONE', 'WORKASPACE' ) );
#135 = CARTESIAN_POINT ( 'NONE',  ( 0.0000000000000000000, 0.0000000000000000000, 0.0000000000000000000 ) ) ;
#136 = ORIENTED_EDGE ( 'NONE', *, *, #138, .F. ) ;
#137 = DIRECTION ( 'NONE',  ( 0.0000000000000000000, 1.000000000000000000, 0.0000000000000000000 ) ) ;
#138 = EDGE_CURVE ( 'NONE', #317, #314, #253, .T. ) ;
#139 = CONICAL_SURFACE ( 'NONE', #37, 1.449999999999999956, 0.7853981633974549403 ) ;
#140 = DIRECTION ( 'NONE',  ( 0.0000000000000000000, 0.0000000000000000000, 1.000000000000000000 ) ) ;
#141 = ORIENTED_EDGE ( 'NONE', *, *, #171, .F. ) ;
#142 = DIRECTION ( 'NONE',  ( -0.0000000000000000000, -1.000000000000000000, -0.0000000000000000000 ) ) ;
#143 = AXIS2_PLACEMENT_3D ( 'NONE', #355, #239, #266 ) ;
#144 = CIRCLE ( 'NONE', #350, 1.449999999999999956 ) ;
#145 = EDGE_LOOP ( 'NONE', ( #348, #349 ) ) ;
#146 = LINE ( 'NONE', #337, #43 ) ;
#147 = VECTOR ( 'NONE', #19, 1000.000000000000000 ) ;
#148 = CARTESIAN_POINT ( 'NONE',  ( 0.0000000000000000000, 16.00000000000000000, 0.0000000000000000000 ) ) ;
#149 = ORIENTED_EDGE ( 'NONE', *, *, #345, .F. ) ;
#150 = AXIS2_PLACEMENT_3D ( 'NONE', #334, #277, #73 ) ;
#151 = DIRECTION ( 'NONE',  ( 0.0000000000000000000, 0.0000000000000000000, 1.000000000000000000 ) ) ;
#152 = DIRECTION ( 'NONE',  ( -0.0000000000000000000, 1.000000000000000000, -0.0000000000000000000 ) ) ;
#153 = PRESENTATION_STYLE_ASSIGNMENT (( #212 ) ) ;
#154 = FILL_AREA_STYLE ('',( #321 ) ) ;
#155 = DIRECTION ( 'NONE',  ( 0.0000000000000000000, -0.0000000000000000000, 1.000000000000000000 ) ) ;
#156 = LINE ( 'NONE', #51, #288 ) ;
#157 = PLANE ( 'NONE',  #143 ) ;
#158 = CARTESIAN_POINT ( 'NONE',  ( 1.775737858763661916E-16, 19.50000000000000355, -1.449999999999999956 ) ) ;
#159 = CARTESIAN_POINT ( 'NONE',  ( 1.775737858763661916E-16, 19.50000000000000355, -1.449999999999999956 ) ) ;
#160 = CARTESIAN_POINT ( 'NONE',  ( 0.0000000000000000000, 16.00000000000000000, 0.0000000000000000000 ) ) ;
#161 = COLOUR_RGB ( '',1.000000000000000000, 1.000000000000000000, 1.000000000000000000 ) ;
#162 = DIRECTION ( 'NONE',  ( 8.659560562354992023E-17, 0.7071067811865426878, -0.7071067811865522357 ) ) ;
#163 = DIRECTION ( 'NONE',  ( 0.0000000000000000000, 0.0000000000000000000, 1.000000000000000000 ) ) ;
#164 = CARTESIAN_POINT ( 'NONE',  ( 0.0000000000000000000, 16.00000000000000000, 1.449999999999999956 ) ) ;
#165 = DIRECTION ( 'NONE',  ( 0.0000000000000000000, 0.0000000000000000000, 1.000000000000000000 ) ) ;
#166 = AXIS2_PLACEMENT_3D ( 'NONE', #271, #131, #108 ) ;
#167 = CARTESIAN_POINT ( 'NONE',  ( 0.0000000000000000000, 20.00000000000000000, 0.0000000000000000000 ) ) ;
#168 = SURFACE_SIDE_STYLE ('',( #99 ) ) ;
#169 = PRODUCT_DEFINITION ( 'UNKNOWN', '', #292, #291 ) ;
#170 = CARTESIAN_POINT ( 'NONE',  ( 0.0000000000000000000, 8.000000000000000000, 1.250000000000000222 ) ) ;
#171 = EDGE_CURVE ( 'NONE', #273, #74, #89, .T. ) ;
#172 = AXIS2_PLACEMENT_3D ( 'NONE', #42, #181, #326 ) ;
#173 = CIRCLE ( 'NONE', #118, 1.250000000000000222 ) ;
#174 = ORIENTED_EDGE ( 'NONE', *, *, #29, .T. ) ;
#175 = CIRCLE ( 'NONE', #27, 1.950000000000003508 ) ;
#176 = CARTESIAN_POINT ( 'NONE',  ( 0.0000000000000000000, 20.00000000000000000, 0.0000000000000000000 ) ) ;
#177 = ORIENTED_EDGE ( 'NONE', *, *, #171, .T. ) ;
#178 = AXIS2_PLACEMENT_3D ( 'NONE', #95, #325, #263 ) ;
#179 = DIRECTION ( 'NONE',  ( 0.0000000000000000000, 0.0000000000000000000, 1.000000000000000000 ) ) ;
#180 = EDGE_CURVE ( 'NONE', #30, #209, #144, .T. ) ;
#181 = DIRECTION ( 'NONE',  ( 0.0000000000000000000, 1.000000000000000000, 0.0000000000000000000 ) ) ;
#182 = DIRECTION ( 'NONE',  ( 0.0000000000000000000, 1.000000000000000000, 0.0000000000000000000 ) ) ;
#183 = EDGE_LOOP ( 'NONE', ( #66, #226 ) ) ;
#184 = ADVANCED_FACE ( 'NONE', ( #260 ), #15, .F. ) ;
#185 = DIRECTION ( 'NONE',  ( -0.0000000000000000000, 1.000000000000000000, -0.0000000000000000000 ) ) ;
#186 = DIRECTION ( 'NONE',  ( 0.0000000000000000000, 0.7071067811865426878, 0.7071067811865522357 ) ) ;
#187 = MECHANICAL_DESIGN_GEOMETRIC_PRESENTATION_REPRESENTATION (  '', ( #218 ), #134 ) ;
#188 = CYLINDRICAL_SURFACE ( 'NONE', #7, 1.250000000000000222 ) ;
#189 = ORIENTED_EDGE ( 'NONE', *, *, #59, .F. ) ;
#190 = DIRECTION ( 'NONE',  ( 0.0000000000000000000, 1.000000000000000000, 0.0000000000000000000 ) ) ;
#191 = PRESENTATION_STYLE_ASSIGNMENT (( #115 ) ) ;
#192 = PRESENTATION_LAYER_ASSIGNMENT (  '', '', ( #218 ) ) ;
#193 = ORIENTED_EDGE ( 'NONE', *, *, #204, .F. ) ;
#194 = FILL_AREA_STYLE_COLOUR ( '', #161 ) ;
#195 = FACE_OUTER_BOUND ( 'NONE', #343, .T. ) ;
#196 = FACE_OUTER_BOUND ( 'NONE', #269, .T. ) ;
#197 = SURFACE_STYLE_FILL_AREA ( #154 ) ;
#198 = DIRECTION ( 'NONE',  ( 0.0000000000000000000, 0.0000000000000000000, -1.000000000000000000 ) ) ;
#199 = ORIENTED_EDGE ( 'NONE', *, *, #138, .T. ) ;
#200 = AXIS2_PLACEMENT_3D ( 'NONE', #11, #213, #298 ) ;
#201 = CARTESIAN_POINT ( 'NONE',  ( 0.0000000000000000000, 0.0000000000000000000, 0.0000000000000000000 ) ) ;
#202 = VECTOR ( 'NONE', #186, 1000.000000000000114 ) ;
#203 = ORIENTED_EDGE ( 'NONE', *, *, #94, .T. ) ;
#204 = EDGE_CURVE ( 'NONE', #314, #250, #307, .T. ) ;
#205 = LINE ( 'NONE', #221, #147 ) ;
#206 = AXIS2_PLACEMENT_3D ( 'NONE', #366, #190, #245 ) ;
#207 = EDGE_LOOP ( 'NONE', ( #193, #136, #1, #46 ) ) ;
#208 = LINE ( 'NONE', #158, #121 ) ;
#209 = VERTEX_POINT ( 'NONE', #354 ) ;
#210 = VERTEX_POINT ( 'NONE', #241 ) ;
#211 = PRODUCT_RELATED_PRODUCT_CATEGORY ( 'part', '', ( #60 ) ) ;
#212 = SURFACE_STYLE_USAGE ( .BOTH. , #353 ) ;
#213 = DIRECTION ( 'NONE',  ( -0.0000000000000000000, 1.000000000000000000, -0.0000000000000000000 ) ) ;
#214 = CARTESIAN_POINT ( 'NONE',  ( 0.0000000000000000000, 20.00000000000000000, 0.0000000000000000000 ) ) ;
#215 = CONICAL_SURFACE ( 'NONE', #206, 1.449999999999999956, 0.7853981633974549403 ) ;
#216 = CARTESIAN_POINT ( 'NONE',  ( 0.0000000000000000000, 14.50000000000000000, 0.0000000000000000000 ) ) ;
#217 = ORIENTED_EDGE ( 'NONE', *, *, #231, .T. ) ;
#218 = STYLED_ITEM ( 'NONE', ( #191 ), #32 ) ;
#219 = ADVANCED_FACE ( 'NONE', ( #79 ), #5, .F. ) ;
#220 = CARTESIAN_POINT ( 'NONE',  ( 0.0000000000000000000, 19.50000000000000355, 0.0000000000000000000 ) ) ;
#221 = CARTESIAN_POINT ( 'NONE',  ( 3.673940397442060361E-16, 20.00000000000000000, 3.000000000000000444 ) ) ;
#222 = DIRECTION ( 'NONE',  ( 0.0000000000000000000, 1.000000000000000000, 0.0000000000000000000 ) ) ;
#223 = VECTOR ( 'NONE', #227, 1000.000000000000227 ) ;
#224 = CIRCLE ( 'NONE', #238, 3.000000000000000444 ) ;
#225 = DIRECTION ( 'NONE',  ( -0.0000000000000000000, -1.000000000000000000, -0.0000000000000000000 ) ) ;
#226 = ORIENTED_EDGE ( 'NONE', *, *, #365, .T. ) ;
#227 = DIRECTION ( 'NONE',  ( 0.0000000000000000000, 0.9656157585206696092, 0.2599734734478725828 ) ) ;
#228 = AXIS2_PLACEMENT_3D ( 'NONE', #201, #140, #369 ) ;
#229 = CARTESIAN_POINT ( 'NONE',  ( 0.0000000000000000000, 8.000000000000000000, 0.0000000000000000000 ) ) ;
#230 = DIRECTION ( 'NONE',  ( 0.0000000000000000000, 0.0000000000000000000, 1.000000000000000000 ) ) ;
#231 = EDGE_CURVE ( 'NONE', #56, #30, #319, .T. ) ;
#232 = CIRCLE ( 'NONE', #64, 3.000000000000000444 ) ;
#233 = FACE_OUTER_BOUND ( 'NONE', #103, .T. ) ;
#234 = UNCERTAINTY_MEASURE_WITH_UNIT (LENGTH_MEASURE( 1.000000000000000082E-05 ), #240, 'distance_accuracy_value', 'NONE');
#235 =( GEOMETRIC_REPRESENTATION_CONTEXT ( 3 ) GLOBAL_UNCERTAINTY_ASSIGNED_CONTEXT ( ( #234 ) ) GLOBAL_UNIT_ASSIGNED_CONTEXT ( ( #240, #243, #264 ) ) REPRESENTATION_CONTEXT ( 'NONE', 'WORKASPACE' ) );
#236 = ORIENTED_EDGE ( 'NONE', *, *, #345, .T. ) ;
#237 = DIRECTION ( 'NONE',  ( 0.0000000000000000000, -0.0000000000000000000, 1.000000000000000000 ) ) ;
#238 = AXIS2_PLACEMENT_3D ( 'NONE', #70, #182, #41 ) ;
#239 = DIRECTION ( 'NONE',  ( 0.0000000000000000000, 1.000000000000000000, 0.0000000000000000000 ) ) ;
#240 =( LENGTH_UNIT ( ) NAMED_UNIT ( * ) SI_UNIT ( .MILLI., .METRE. ) );
#241 = CARTESIAN_POINT ( 'NONE',  ( 3.673940397442060361E-16, 14.50000000000000000, -3.000000000000000000 ) ) ;
#242 = ORIENTED_EDGE ( 'NONE', *, *, #119, .T. ) ;
#243 =( NAMED_UNIT ( * ) PLANE_ANGLE_UNIT ( ) SI_UNIT ( $, .RADIAN. ) );
#244 = ORIENTED_EDGE ( 'NONE', *, *, #301, .T. ) ;
#245 = DIRECTION ( 'NONE',  ( 0.0000000000000000000, 0.0000000000000000000, 1.000000000000000000 ) ) ;
#246 = EDGE_CURVE ( 'NONE', #209, #30, #248, .T. ) ;
#247 = DIRECTION ( 'NONE',  ( 0.0000000000000000000, 0.0000000000000000000, 1.000000000000000000 ) ) ;
#248 = CIRCLE ( 'NONE', #284, 1.449999999999999956 ) ;
#249 =( LENGTH_UNIT ( ) NAMED_UNIT ( * ) SI_UNIT ( .MILLI., .METRE. ) );
#250 = VERTEX_POINT ( 'NONE', #295 ) ;
#251 =( NAMED_UNIT ( * ) SI_UNIT ( $, .STERADIAN. ) SOLID_ANGLE_UNIT ( ) );
#252 = FACE_OUTER_BOUND ( 'NONE', #338, .T. ) ;
#253 = CIRCLE ( 'NONE', #178, 1.250000000000000222 ) ;
#254 =( LENGTH_UNIT ( ) NAMED_UNIT ( * ) SI_UNIT ( .MILLI., .METRE. ) );
#255 = AXIS2_PLACEMENT_3D ( 'NONE', #53, #279, #230 ) ;
#256 = STYLED_ITEM ( 'NONE', ( #153 ), #16 ) ;
#257 = CIRCLE ( 'NONE', #83, 1.250000000000000222 ) ;
#258 = ORIENTED_EDGE ( 'NONE', *, *, #94, .F. ) ;
#259 = FACE_OUTER_BOUND ( 'NONE', #40, .T. ) ;
#260 = FACE_OUTER_BOUND ( 'NONE', #313, .T. ) ;
#261 = EDGE_CURVE ( 'NONE', #317, #28, #146, .T. ) ;
#262 = VECTOR ( 'NONE', #225, 1000.000000000000000 ) ;
#263 = DIRECTION ( 'NONE',  ( 0.0000000000000000000, 0.0000000000000000000, 1.000000000000000000 ) ) ;
#264 =( NAMED_UNIT ( * ) SI_UNIT ( $, .STERADIAN. ) SOLID_ANGLE_UNIT ( ) );
#265 = EDGE_CURVE ( 'NONE', #28, #250, #173, .T. ) ;
#266 = DIRECTION ( 'NONE',  ( 0.0000000000000000000, -0.0000000000000000000, 1.000000000000000000 ) ) ;
#267 = UNCERTAINTY_MEASURE_WITH_UNIT (LENGTH_MEASURE( 1.000000000000000082E-05 ), #254, 'distance_accuracy_value', 'NONE');
#268 = CARTESIAN_POINT ( 'NONE',  ( 0.0000000000000000000, 0.0000000000000000000, 0.0000000000000000000 ) ) ;
#269 = EDGE_LOOP ( 'NONE', ( #177, #290 ) ) ;
#270 = ORIENTED_EDGE ( 'NONE', *, *, #119, .F. ) ;
#271 = CARTESIAN_POINT ( 'NONE',  ( 0.0000000000000000000, 8.000000000000000000, 0.0000000000000000000 ) ) ;
#272 = CARTESIAN_POINT ( 'NONE',  ( 3.673940397442060361E-16, 20.00000000000000000, 3.000000000000000444 ) ) ;
#273 = VERTEX_POINT ( 'NONE', #274 ) ;
#274 = CARTESIAN_POINT ( 'NONE',  ( 0.0000000000000000000, 20.00000000000000000, -3.000000000000000444 ) ) ;
#275 = ADVANCED_FACE ( 'NONE', ( #233 ), #341, .T. ) ;
#276 = PRESENTATION_LAYER_ASSIGNMENT (  '', '', ( #256 ) ) ;
#277 = DIRECTION ( 'NONE',  ( -0.0000000000000000000, -1.000000000000000000, -0.0000000000000000000 ) ) ;
#278 = DIRECTION ( 'NONE',  ( -0.0000000000000000000, -1.000000000000000000, -0.0000000000000000000 ) ) ;
#279 = DIRECTION ( 'NONE',  ( 0.0000000000000000000, 1.000000000000000000, 0.0000000000000000000 ) ) ;
#280 = CIRCLE ( 'NONE', #77, 1.250000000000000222 ) ;
#281 = EDGE_LOOP ( 'NONE', ( #346, #141, #236, #35 ) ) ;
#282 = PRODUCT_CONTEXT ( 'NONE', #54, 'mechanical' ) ;
#283 = VERTEX_POINT ( 'NONE', #106 ) ;
#284 = AXIS2_PLACEMENT_3D ( 'NONE', #220, #48, #247 ) ;
#285 = DIRECTION ( 'NONE',  ( 0.0000000000000000000, 0.0000000000000000000, 1.000000000000000000 ) ) ;
#286 = FACE_OUTER_BOUND ( 'NONE', #122, .T. ) ;
#287 = ORIENTED_EDGE ( 'NONE', *, *, #22, .T. ) ;
#288 = VECTOR ( 'NONE', #363, 1000.000000000000000 ) ;
#289 = VERTEX_POINT ( 'NONE', #164 ) ;
#290 = ORIENTED_EDGE ( 'NONE', *, *, #323, .T. ) ;
#291 = PRODUCT_DEFINITION_CONTEXT ( 'detailed design', #340, 'design' ) ;
#292 = PRODUCT_DEFINITION_FORMATION_WITH_SPECIFIED_SOURCE ( 'ANY', '', #60, .NOT_KNOWN. ) ;
#293 = ORIENTED_EDGE ( 'NONE', *, *, #204, .T. ) ;
#294 = DIRECTION ( 'NONE',  ( 0.0000000000000000000, 1.000000000000000000, 0.0000000000000000000 ) ) ;
#295 = CARTESIAN_POINT ( 'NONE',  ( 1.530808498934191817E-16, 0.0000000000000000000, 1.250000000000000222 ) ) ;
#296 = VECTOR ( 'NONE', #185, 1000.000000000000000 ) ;
#297 = VERTEX_POINT ( 'NONE', #132 ) ;
#298 = DIRECTION ( 'NONE',  ( 0.0000000000000000000, 0.0000000000000000000, 1.000000000000000000 ) ) ;
#299 = ADVANCED_FACE ( 'NONE', ( #195 ), #215, .F. ) ;
#300 = ADVANCED_FACE ( 'NONE', ( #38 ), #120, .T. ) ;
#301 = EDGE_CURVE ( 'NONE', #250, #28, #257, .T. ) ;
#302 = CARTESIAN_POINT ( 'NONE',  ( 0.0000000000000000000, 0.0000000000000000000, 0.0000000000000000000 ) ) ;
#303 = APPLICATION_PROTOCOL_DEFINITION ( 'draft international standard', 'automotive_design', 1998, #340 ) ;
#304 = EDGE_LOOP ( 'NONE', ( #258, #293, #244, #101 ) ) ;
#305 = DIRECTION ( 'NONE',  ( 0.0000000000000000000, 0.0000000000000000000, 1.000000000000000000 ) ) ;
#306 = CARTESIAN_POINT ( 'NONE',  ( 0.0000000000000000000, 20.00000000000000000, 0.0000000000000000000 ) ) ;
#307 = LINE ( 'NONE', #361, #327 ) ;
#308 = DIRECTION ( 'NONE',  ( 0.0000000000000000000, 0.0000000000000000000, 1.000000000000000000 ) ) ;
#309 = CLOSED_SHELL ( 'NONE', ( #299, #219, #300, #336, #324, #356, #184, #275, #21, #96, #78, #104, #330 ) ) ;
#310 = AXIS2_PLACEMENT_3D ( 'NONE', #214, #125, #128 ) ;
#311 = EDGE_CURVE ( 'NONE', #56, #289, #68, .T. ) ;
#312 = CIRCLE ( 'NONE', #367, 1.950000000000003508 ) ;
#313 = EDGE_LOOP ( 'NONE', ( #91, #52 ) ) ;
#314 = VERTEX_POINT ( 'NONE', #331 ) ;
#315 = FACE_OUTER_BOUND ( 'NONE', #207, .T. ) ;
#316 = ORIENTED_EDGE ( 'NONE', *, *, #231, .F. ) ;
#317 = VERTEX_POINT ( 'NONE', #368 ) ;
#318 = EDGE_CURVE ( 'NONE', #289, #209, #156, .T. ) ;
#319 = LINE ( 'NONE', #67, #296 ) ;
#320 = DIRECTION ( 'NONE',  ( 0.0000000000000000000, 0.0000000000000000000, 1.000000000000000000 ) ) ;
#321 = FILL_AREA_STYLE_COLOUR ( '', #13 ) ;
#322 = ORIENTED_EDGE ( 'NONE', *, *, #180, .T. ) ;
#323 = EDGE_CURVE ( 'NONE', #74, #273, #8, .T. ) ;
#324 = ADVANCED_FACE ( 'NONE', ( #93 ), #84, .T. ) ;
#325 = DIRECTION ( 'NONE',  ( 0.0000000000000000000, 1.000000000000000000, 0.0000000000000000000 ) ) ;
#326 = DIRECTION ( 'NONE',  ( 0.0000000000000000000, 0.0000000000000000000, 1.000000000000000000 ) ) ;
#327 = VECTOR ( 'NONE', #92, 1000.000000000000000 ) ;
#328 = LINE ( 'NONE', #65, #123 ) ;
#329 = ORIENTED_EDGE ( 'NONE', *, *, #29, .F. ) ;
#330 = ADVANCED_FACE ( 'NONE', ( #252 ), #139, .F. ) ;
#331 = CARTESIAN_POINT ( 'NONE',  ( 1.530808498934191817E-16, 8.000000000000000000, 1.250000000000000222 ) ) ;
#332 = AXIS2_PLACEMENT_3D ( 'NONE', #176, #36, #237 ) ;
#333 = DIRECTION ( 'NONE',  ( 0.0000000000000000000, 1.000000000000000000, 0.0000000000000000000 ) ) ;
#334 = CARTESIAN_POINT ( 'NONE',  ( 0.0000000000000000000, 20.00000000000000000, 0.0000000000000000000 ) ) ;
#335 = ORIENTED_EDGE ( 'NONE', *, *, #180, .F. ) ;
#336 = ADVANCED_FACE ( 'NONE', ( #259 ), #127, .T. ) ;
#337 = CARTESIAN_POINT ( 'NONE',  ( 0.0000000000000000000, 8.000000000000000000, -1.250000000000000222 ) ) ;
#338 = EDGE_LOOP ( 'NONE', ( #329, #85, #287, #6 ) ) ;
#339 =( NAMED_UNIT ( * ) SI_UNIT ( $, .STERADIAN. ) SOLID_ANGLE_UNIT ( ) );
#340 = APPLICATION_CONTEXT ( 'automotive_design' ) ;
#341 = CONICAL_SURFACE ( 'NONE', #129, 1.250000000000000222, 0.2629947316809194691 ) ;
#342 = CARTESIAN_POINT ( 'NONE',  ( 0.0000000000000000000, 8.000000000000000000, 0.0000000000000000000 ) ) ;
#343 = EDGE_LOOP ( 'NONE', ( #335, #174, #75, #4 ) ) ;
#344 = DIRECTION ( 'NONE',  ( -0.0000000000000000000, -1.000000000000000000, -0.0000000000000000000 ) ) ;
#345 = EDGE_CURVE ( 'NONE', #273, #210, #23, .T. ) ;
#346 = ORIENTED_EDGE ( 'NONE', *, *, #49, .F. ) ;
#347 = EDGE_CURVE ( 'NONE', #297, #58, #312, .T. ) ;
#348 = ORIENTED_EDGE ( 'NONE', *, *, #59, .T. ) ;
#349 = ORIENTED_EDGE ( 'NONE', *, *, #311, .T. ) ;
#350 = AXIS2_PLACEMENT_3D ( 'NONE', #124, #97, #320 ) ;
#351 = CYLINDRICAL_SURFACE ( 'NONE', #362, 1.449999999999999956 ) ;
#352 = ORIENTED_EDGE ( 'NONE', *, *, #323, .F. ) ;
#353 = SURFACE_SIDE_STYLE ('',( #197 ) ) ;
#354 = CARTESIAN_POINT ( 'NONE',  ( 0.0000000000000000000, 19.50000000000000355, 1.449999999999999956 ) ) ;
#355 = CARTESIAN_POINT ( 'NONE',  ( 0.0000000000000000000, 16.00000000000000000, 0.0000000000000000000 ) ) ;
#356 = ADVANCED_FACE ( 'NONE', ( #315 ), #188, .T. ) ;
#357 = CARTESIAN_POINT ( 'NONE',  ( 2.388061258337343080E-16, 20.00000000000000000, -1.950000000000003508 ) ) ;
#358 = FACE_BOUND ( 'NONE', #183, .T. ) ;
#359 = CARTESIAN_POINT ( 'NONE',  ( 0.0000000000000000000, 19.50000000000000355, 1.449999999999999956 ) ) ;
#360 = EDGE_LOOP ( 'NONE', ( #2, #217, #322, #55 ) ) ;
#361 = CARTESIAN_POINT ( 'NONE',  ( 1.530808498934191817E-16, 8.000000000000000000, 1.250000000000000222 ) ) ;
#362 = AXIS2_PLACEMENT_3D ( 'NONE', #148, #152, #151 ) ;
#363 = DIRECTION ( 'NONE',  ( -0.0000000000000000000, 1.000000000000000000, -0.0000000000000000000 ) ) ;
#364 = DIRECTION ( 'NONE',  ( 0.0000000000000000000, 0.0000000000000000000, 1.000000000000000000 ) ) ;
#365 = EDGE_CURVE ( 'NONE', #58, #297, #175, .T. ) ;
#366 = CARTESIAN_POINT ( 'NONE',  ( 0.0000000000000000000, 19.50000000000000355, 0.0000000000000000000 ) ) ;
#367 = AXIS2_PLACEMENT_3D ( 'NONE', #306, #278, #308 ) ;
#368 = CARTESIAN_POINT ( 'NONE',  ( 0.0000000000000000000, 8.000000000000000000, -1.250000000000000222 ) ) ;
#369 = DIRECTION ( 'NONE',  ( 1.000000000000000000, 0.0000000000000000000, 0.0000000000000000000 ) ) ;
#370 = EDGE_CURVE ( 'NONE', #314, #283, #62, .T. ) ;
ENDSEC;
END-ISO-10303-21;
