ISO-10303-21;
HEADER;
FILE_DESCRIPTION (( 'STEP AP214' ),
    '1' );
FILE_NAME ('INGUN_16436.STEP',
    '2020-09-14T12:39:38',
    ( '' ),
    ( '' ),
    'SwSTEP 2.0',
    'SolidWorks 2018',
    '' );
FILE_SCHEMA (( 'AUTOMOTIVE_DESIGN' ));
ENDSEC;

DATA;
#1 = DIRECTION ( 'NONE',  ( 1.445602896647339163E-16, 0.000000000000000000, 1.000000000000000000 ) ) ;
#2 = CIRCLE ( 'NONE', #189, 2.149999999999999911 ) ;
#3 = CARTESIAN_POINT ( 'NONE',  ( 11.24999999999999645, 3.000000000000000000, 8.500000000000000000 ) ) ;
#4 = AXIS2_PLACEMENT_3D ( 'NONE', #159, #224, #247 ) ;
#5 = DIRECTION ( 'NONE',  ( -1.445602896647339163E-16, 0.000000000000000000, -1.000000000000000000 ) ) ;
#6 = LINE ( 'NONE', #254, #118 ) ;
#7 = APPLICATION_PROTOCOL_DEFINITION ( 'draft international standard', 'automotive_design', 1998, #69 ) ;
#8 = ORIENTED_EDGE ( 'NONE', *, *, #75, .F. ) ;
#9 = EDGE_CURVE ( 'NONE', #253, #104, #99, .T. ) ;
#10 = SHAPE_DEFINITION_REPRESENTATION ( #49, #173 ) ;
#11 = ORIENTED_EDGE ( 'NONE', *, *, #196, .F. ) ;
#12 = EDGE_LOOP ( 'NONE', ( #248, #156 ) ) ;
#13 = STYLED_ITEM ( 'NONE', ( #153 ), #173 ) ;
#14 = FACE_OUTER_BOUND ( 'NONE', #162, .T. ) ;
#15 = DIRECTION ( 'NONE',  ( 0.000000000000000000, 1.000000000000000000, 0.000000000000000000 ) ) ;
#16 = AXIS2_PLACEMENT_3D ( 'NONE', #23, #210, #64 ) ;
#17 = FACE_OUTER_BOUND ( 'NONE', #177, .T. ) ;
#18 = ORIENTED_EDGE ( 'NONE', *, *, #140, .T. ) ;
#19 = DIRECTION ( 'NONE',  ( 0.000000000000000000, 0.000000000000000000, 1.000000000000000000 ) ) ;
#20 = EDGE_CURVE ( 'NONE', #85, #207, #103, .T. ) ;
#21 = CARTESIAN_POINT ( 'NONE',  ( -11.25000000000000355, 3.000000000000000000, 8.500000000000001776 ) ) ;
#22 = DIRECTION ( 'NONE',  ( -1.000000000000000000, 0.000000000000000000, 7.709882115452476934E-17 ) ) ;
#23 = CARTESIAN_POINT ( 'NONE',  ( 0.000000000000000000, 3.000000000000000000, 0.000000000000000000 ) ) ;
#24 = FACE_OUTER_BOUND ( 'NONE', #97, .T. ) ;
#25 = PRODUCT_RELATED_PRODUCT_CATEGORY ( 'part', '', ( #198 ) ) ;
#26 = DIRECTION ( 'NONE',  ( -0.000000000000000000, -1.000000000000000000, -0.000000000000000000 ) ) ;
#27 = FACE_OUTER_BOUND ( 'NONE', #194, .T. ) ;
#28 = ORIENTED_EDGE ( 'NONE', *, *, #176, .T. ) ;
#29 = PRODUCT_CONTEXT ( 'NONE', #69, 'mechanical' ) ;
#30 = DIRECTION ( 'NONE',  ( 0.000000000000000000, 0.000000000000000000, 1.000000000000000000 ) ) ;
#31 = VECTOR ( 'NONE', #26, 1000.000000000000000 ) ;
#32 = AXIS2_PLACEMENT_3D ( 'NONE', #192, #147, #171 ) ;
#33 = LINE ( 'NONE', #80, #115 ) ;
#34 = AXIS2_PLACEMENT_3D ( 'NONE', #257, #163, #22 ) ;
#35 = EDGE_CURVE ( 'NONE', #241, #89, #134, .T. ) ;
#36 = ORIENTED_EDGE ( 'NONE', *, *, #75, .T. ) ;
#37 = ORIENTED_EDGE ( 'NONE', *, *, #246, .F. ) ;
#38 = DIRECTION ( 'NONE',  ( -0.000000000000000000, 1.000000000000000000, -0.000000000000000000 ) ) ;
#39 = ADVANCED_FACE ( 'NONE', ( #17 ), #229, .F. ) ;
#40 = ORIENTED_EDGE ( 'NONE', *, *, #48, .T. ) ;
#41 = CARTESIAN_POINT ( 'NONE',  ( -11.25000000000000711, 0.000000000000000000, -11.99999999999999822 ) ) ;
#42 = CARTESIAN_POINT ( 'NONE',  ( 2.632990618166809235E-16, 3.000000000000000000, 2.149999999999999911 ) ) ;
#43 = LINE ( 'NONE', #41, #57 ) ;
#44 = EDGE_CURVE ( 'NONE', #244, #207, #274, .T. ) ;
#45 = DIRECTION ( 'NONE',  ( 0.000000000000000000, 0.000000000000000000, -1.000000000000000000 ) ) ;
#46 = CARTESIAN_POINT ( 'NONE',  ( -11.25000000000000711, 0.000000000000000000, -11.99999999999999822 ) ) ;
#47 = DIRECTION ( 'NONE',  ( 1.000000000000000000, 0.000000000000000000, -1.445602896647339163E-16 ) ) ;
#48 = EDGE_CURVE ( 'NONE', #238, #85, #227, .T. ) ;
#49 = PRODUCT_DEFINITION_SHAPE ( 'NONE', 'NONE',  #268 ) ;
#50 = STYLED_ITEM ( 'NONE', ( #193 ), #213 ) ;
#51 = FILL_AREA_STYLE_COLOUR ( '', #239 ) ;
#52 = VECTOR ( 'NONE', #202, 1000.000000000000000 ) ;
#53 = EDGE_CURVE ( 'NONE', #89, #151, #222, .T. ) ;
#54 = ORIENTED_EDGE ( 'NONE', *, *, #231, .F. ) ;
#55 = ORIENTED_EDGE ( 'NONE', *, *, #264, .F. ) ;
#56 = DIRECTION ( 'NONE',  ( -1.000000000000000000, -0.000000000000000000, -0.000000000000000000 ) ) ;
#57 = VECTOR ( 'NONE', #255, 1000.000000000000000 ) ;
#58 = ADVANCED_FACE ( 'NONE', ( #129 ), #120, .F. ) ;
#59 = CARTESIAN_POINT ( 'NONE',  ( -11.25000000000000711, 3.000000000000000000, -11.99999999999999822 ) ) ;
#60 = EDGE_CURVE ( 'NONE', #89, #228, #33, .T. ) ;
#61 = PRESENTATION_LAYER_ASSIGNMENT (  '', '', ( #50 ) ) ;
#62 = LINE ( 'NONE', #100, #179 ) ;
#63 = ORIENTED_EDGE ( 'NONE', *, *, #20, .F. ) ;
#64 = DIRECTION ( 'NONE',  ( 0.000000000000000000, 0.000000000000000000, 1.000000000000000000 ) ) ;
#65 = DIRECTION ( 'NONE',  ( 0.000000000000000000, -1.000000000000000000, 0.000000000000000000 ) ) ;
#66 = LINE ( 'NONE', #141, #84 ) ;
#67 = FILL_AREA_STYLE_COLOUR ( '', #138 ) ;
#68 = PLANE ( 'NONE',  #276 ) ;
#69 = APPLICATION_CONTEXT ( 'automotive_design' ) ;
#70 = ADVANCED_FACE ( 'NONE', ( #24 ), #265, .F. ) ;
#71 = LINE ( 'NONE', #223, #167 ) ;
#72 = VERTEX_POINT ( 'NONE', #271 ) ;
#73 =( NAMED_UNIT ( * ) PLANE_ANGLE_UNIT ( ) SI_UNIT ( $, .RADIAN. ) );
#74 = FACE_BOUND ( 'NONE', #12, .T. ) ;
#75 = EDGE_CURVE ( 'NONE', #72, #228, #71, .T. ) ;
#76 = MECHANICAL_DESIGN_GEOMETRIC_PRESENTATION_REPRESENTATION (  '', ( #13 ), #93 ) ;
#77 = ORIENTED_EDGE ( 'NONE', *, *, #48, .F. ) ;
#78 = ORIENTED_EDGE ( 'NONE', *, *, #117, .T. ) ;
#79 = ORIENTED_EDGE ( 'NONE', *, *, #35, .T. ) ;
#80 = CARTESIAN_POINT ( 'NONE',  ( -11.25000000000000711, 3.000000000000000000, -11.99999999999999822 ) ) ;
#81 = EDGE_CURVE ( 'NONE', #253, #72, #126, .T. ) ;
#82 = DIRECTION ( 'NONE',  ( -1.000000000000000000, -0.000000000000000000, 7.709882115452476934E-17 ) ) ;
#83 = CARTESIAN_POINT ( 'NONE',  ( -11.25000000000000711, 3.000000000000000000, -11.99999999999999822 ) ) ;
#84 = VECTOR ( 'NONE', #124, 1000.000000000000000 ) ;
#85 = VERTEX_POINT ( 'NONE', #232 ) ;
#86 = UNCERTAINTY_MEASURE_WITH_UNIT (LENGTH_MEASURE( 1.000000000000000082E-05 ), #106, 'distance_accuracy_value', 'NONE');
#87 = SURFACE_SIDE_STYLE ('',( #109 ) ) ;
#88 = VECTOR ( 'NONE', #56, 1000.000000000000000 ) ;
#89 = VERTEX_POINT ( 'NONE', #144 ) ;
#90 = DIRECTION ( 'NONE',  ( 0.000000000000000000, 1.000000000000000000, 0.000000000000000000 ) ) ;
#91 = DIRECTION ( 'NONE',  ( 0.000000000000000000, -1.000000000000000000, 0.000000000000000000 ) ) ;
#92 = LINE ( 'NONE', #145, #31 ) ;
#93 =( GEOMETRIC_REPRESENTATION_CONTEXT ( 3 ) GLOBAL_UNCERTAINTY_ASSIGNED_CONTEXT ( ( #242 ) ) GLOBAL_UNIT_ASSIGNED_CONTEXT ( ( #260, #130, #94 ) ) REPRESENTATION_CONTEXT ( 'NONE', 'WORKASPACE' ) );
#94 =( NAMED_UNIT ( * ) SI_UNIT ( $, .STERADIAN. ) SOLID_ANGLE_UNIT ( ) );
#95 =( NAMED_UNIT ( * ) SI_UNIT ( $, .STERADIAN. ) SOLID_ANGLE_UNIT ( ) );
#96 = DIRECTION ( 'NONE',  ( -1.000000000000000000, -0.000000000000000000, 7.709882115452476934E-17 ) ) ;
#97 = EDGE_LOOP ( 'NONE', ( #132, #40, #148, #204 ) ) ;
#98 = ORIENTED_EDGE ( 'NONE', *, *, #246, .T. ) ;
#99 = LINE ( 'NONE', #180, #155 ) ;
#100 = CARTESIAN_POINT ( 'NONE',  ( -11.25000000000000711, 0.000000000000000000, -11.99999999999999822 ) ) ;
#101 = AXIS2_PLACEMENT_3D ( 'NONE', #188, #30, #149 ) ;
#102 = DIRECTION ( 'NONE',  ( 0.000000000000000000, 1.000000000000000000, 0.000000000000000000 ) ) ;
#103 = LINE ( 'NONE', #245, #52 ) ;
#104 = VERTEX_POINT ( 'NONE', #3 ) ;
#105 = PLANE ( 'NONE',  #34 ) ;
#106 =( LENGTH_UNIT ( ) NAMED_UNIT ( * ) SI_UNIT ( .MILLI., .METRE. ) );
#107 = CARTESIAN_POINT ( 'NONE',  ( 2.632990618166809235E-16, 0.000000000000000000, 2.149999999999999911 ) ) ;
#108 = SURFACE_STYLE_USAGE ( .BOTH. , #87 ) ;
#109 = SURFACE_STYLE_FILL_AREA ( #233 ) ;
#110 = ORIENTED_EDGE ( 'NONE', *, *, #53, .T. ) ;
#111 = ORIENTED_EDGE ( 'NONE', *, *, #166, .F. ) ;
#112 = SURFACE_SIDE_STYLE ('',( #150 ) ) ;
#113 =( GEOMETRIC_REPRESENTATION_CONTEXT ( 3 ) GLOBAL_UNCERTAINTY_ASSIGNED_CONTEXT ( ( #201 ) ) GLOBAL_UNIT_ASSIGNED_CONTEXT ( ( #236, #73, #95 ) ) REPRESENTATION_CONTEXT ( 'NONE', 'WORKASPACE' ) );
#114 = CIRCLE ( 'NONE', #16, 2.149999999999999911 ) ;
#115 = VECTOR ( 'NONE', #161, 1000.000000000000000 ) ;
#116 = ORIENTED_EDGE ( 'NONE', *, *, #166, .T. ) ;
#117 = EDGE_CURVE ( 'NONE', #142, #151, #43, .T. ) ;
#118 = VECTOR ( 'NONE', #164, 1000.000000000000000 ) ;
#119 = DIRECTION ( 'NONE',  ( -1.445602896647339163E-16, 0.000000000000000000, 1.000000000000000000 ) ) ;
#120 = PLANE ( 'NONE',  #160 ) ;
#121 = FACE_BOUND ( 'NONE', #195, .T. ) ;
#122 = VECTOR ( 'NONE', #136, 1000.000000000000000 ) ;
#123 = ORIENTED_EDGE ( 'NONE', *, *, #60, .F. ) ;
#124 = DIRECTION ( 'NONE',  ( 1.445602896647339163E-16, -0.000000000000000000, -1.000000000000000000 ) ) ;
#125 = CARTESIAN_POINT ( 'NONE',  ( 0.000000000000000000, 0.000000000000000000, 0.000000000000000000 ) ) ;
#126 = LINE ( 'NONE', #269, #261 ) ;
#127 =( NAMED_UNIT ( * ) PLANE_ANGLE_UNIT ( ) SI_UNIT ( $, .RADIAN. ) );
#128 = FILL_AREA_STYLE ('',( #51 ) ) ;
#129 = FACE_OUTER_BOUND ( 'NONE', #152, .T. ) ;
#130 =( NAMED_UNIT ( * ) PLANE_ANGLE_UNIT ( ) SI_UNIT ( $, .RADIAN. ) );
#131 = ORIENTED_EDGE ( 'NONE', *, *, #35, .F. ) ;
#132 = ORIENTED_EDGE ( 'NONE', *, *, #235, .F. ) ;
#133 = ORIENTED_EDGE ( 'NONE', *, *, #235, .T. ) ;
#134 = LINE ( 'NONE', #225, #88 ) ;
#135 = ORIENTED_EDGE ( 'NONE', *, *, #60, .T. ) ;
#136 = DIRECTION ( 'NONE',  ( -0.000000000000000000, -1.000000000000000000, -0.000000000000000000 ) ) ;
#137 = DIRECTION ( 'NONE',  ( 0.000000000000000000, 0.000000000000000000, 1.000000000000000000 ) ) ;
#138 = COLOUR_RGB ( '',0.7529411764705882248, 1.000000000000000000, 0.7529411764705882248 ) ;
#139 = CARTESIAN_POINT ( 'NONE',  ( 11.25000000000000000, 3.000000000000000000, -11.99999999999999822 ) ) ;
#140 = EDGE_CURVE ( 'NONE', #151, #72, #62, .T. ) ;
#141 = CARTESIAN_POINT ( 'NONE',  ( 11.25000000000000000, 0.000000000000000000, -11.99999999999999822 ) ) ;
#142 = VERTEX_POINT ( 'NONE', #206 ) ;
#143 = ORIENTED_EDGE ( 'NONE', *, *, #81, .F. ) ;
#144 = CARTESIAN_POINT ( 'NONE',  ( -11.25000000000000711, 3.000000000000000000, -11.99999999999999822 ) ) ;
#145 = CARTESIAN_POINT ( 'NONE',  ( 11.25000000000000000, 3.000000000000000000, -11.99999999999999822 ) ) ;
#146 = FACE_OUTER_BOUND ( 'NONE', #178, .T. ) ;
#147 = DIRECTION ( 'NONE',  ( 0.000000000000000000, 1.000000000000000000, 0.000000000000000000 ) ) ;
#148 = ORIENTED_EDGE ( 'NONE', *, *, #20, .T. ) ;
#149 = DIRECTION ( 'NONE',  ( 1.000000000000000000, 0.000000000000000000, 0.000000000000000000 ) ) ;
#150 = SURFACE_STYLE_FILL_AREA ( #128 ) ;
#151 = VERTEX_POINT ( 'NONE', #46 ) ;
#152 = EDGE_LOOP ( 'NONE', ( #78, #219, #131, #170 ) ) ;
#153 = PRESENTATION_STYLE_ASSIGNMENT (( #217 ) ) ;
#154 = ADVANCED_FACE ( 'NONE', ( #186 ), #174, .F. ) ;
#155 = VECTOR ( 'NONE', #38, 1000.000000000000000 ) ;
#156 = ORIENTED_EDGE ( 'NONE', *, *, #44, .T. ) ;
#157 = PRODUCT_DEFINITION_FORMATION_WITH_SPECIFIED_SOURCE ( 'ANY', '', #198, .NOT_KNOWN. ) ;
#158 = ADVANCED_FACE ( 'NONE', ( #14 ), #105, .F. ) ;
#159 = CARTESIAN_POINT ( 'NONE',  ( 0.000000000000000000, 3.000000000000000000, 0.000000000000000000 ) ) ;
#160 = AXIS2_PLACEMENT_3D ( 'NONE', #83, #181, #272 ) ;
#161 = DIRECTION ( 'NONE',  ( 1.445602896647339163E-16, 0.000000000000000000, 1.000000000000000000 ) ) ;
#162 = EDGE_LOOP ( 'NONE', ( #218, #8, #143, #182 ) ) ;
#163 = DIRECTION ( 'NONE',  ( -7.709882115452476934E-17, 0.000000000000000000, -1.000000000000000000 ) ) ;
#164 = DIRECTION ( 'NONE',  ( 1.445602896647339163E-16, -0.000000000000000000, -1.000000000000000000 ) ) ;
#165 = DIRECTION ( 'NONE',  ( 0.000000000000000000, -0.000000000000000000, 1.000000000000000000 ) ) ;
#166 = EDGE_CURVE ( 'NONE', #104, #241, #6, .T. ) ;
#167 = VECTOR ( 'NONE', #221, 1000.000000000000000 ) ;
#168 = APPLICATION_CONTEXT ( 'automotive_design' ) ;
#169 = ORIENTED_EDGE ( 'NONE', *, *, #140, .F. ) ;
#170 = ORIENTED_EDGE ( 'NONE', *, *, #231, .T. ) ;
#171 = DIRECTION ( 'NONE',  ( 0.000000000000000000, -0.000000000000000000, 1.000000000000000000 ) ) ;
#172 = AXIS2_PLACEMENT_3D ( 'NONE', #270, #267, #119 ) ;
#173 = ADVANCED_BREP_SHAPE_REPRESENTATION ( 'INGUN_16436', ( #213, #101 ), #113 ) ;
#174 = CYLINDRICAL_SURFACE ( 'NONE', #184, 2.149999999999999911 ) ;
#175 = ADVANCED_FACE ( 'NONE', ( #191, #74 ), #187, .F. ) ;
#176 = EDGE_CURVE ( 'NONE', #85, #238, #114, .T. ) ;
#177 = EDGE_LOOP ( 'NONE', ( #111, #237, #98, #54 ) ) ;
#178 = EDGE_LOOP ( 'NONE', ( #55, #116, #79, #135 ) ) ;
#179 = VECTOR ( 'NONE', #1, 1000.000000000000000 ) ;
#180 = CARTESIAN_POINT ( 'NONE',  ( 11.24999999999999645, 0.000000000000000000, 8.500000000000000000 ) ) ;
#181 = DIRECTION ( 'NONE',  ( 0.000000000000000000, 0.000000000000000000, 1.000000000000000000 ) ) ;
#182 = ORIENTED_EDGE ( 'NONE', *, *, #9, .T. ) ;
#183 = DIRECTION ( 'NONE',  ( 0.000000000000000000, 1.000000000000000000, 0.000000000000000000 ) ) ;
#184 = AXIS2_PLACEMENT_3D ( 'NONE', #251, #91, #45 ) ;
#185 = CARTESIAN_POINT ( 'NONE',  ( -11.25000000000000355, 0.000000000000000000, 12.00000000000000178 ) ) ;
#186 = FACE_OUTER_BOUND ( 'NONE', #212, .T. ) ;
#187 = PLANE ( 'NONE',  #216 ) ;
#188 = CARTESIAN_POINT ( 'NONE',  ( 0.000000000000000000, 0.000000000000000000, 0.000000000000000000 ) ) ;
#189 = AXIS2_PLACEMENT_3D ( 'NONE', #125, #90, #275 ) ;
#190 = CARTESIAN_POINT ( 'NONE',  ( -11.25000000000000355, 3.000000000000000000, 8.500000000000001776 ) ) ;
#191 = FACE_OUTER_BOUND ( 'NONE', #252, .T. ) ;
#192 = CARTESIAN_POINT ( 'NONE',  ( -11.25000000000000355, 3.000000000000000000, 12.00000000000000178 ) ) ;
#193 = PRESENTATION_STYLE_ASSIGNMENT (( #108 ) ) ;
#194 = EDGE_LOOP ( 'NONE', ( #18, #36, #123, #110 ) ) ;
#195 = EDGE_LOOP ( 'NONE', ( #199, #77 ) ) ;
#196 = EDGE_CURVE ( 'NONE', #207, #244, #2, .T. ) ;
#197 = PRODUCT_DEFINITION_CONTEXT ( 'detailed design', #168, 'design' ) ;
#198 = PRODUCT ( 'INGUN_16436', 'INGUN_16436', '', ( #29 ) ) ;
#199 = ORIENTED_EDGE ( 'NONE', *, *, #176, .F. ) ;
#200 = CLOSED_SHELL ( 'NONE', ( #154, #266, #175, #263, #39, #58, #70, #158 ) ) ;
#201 = UNCERTAINTY_MEASURE_WITH_UNIT (LENGTH_MEASURE( 1.000000000000000082E-05 ), #236, 'distance_accuracy_value', 'NONE');
#202 = DIRECTION ( 'NONE',  ( 0.000000000000000000, -1.000000000000000000, 0.000000000000000000 ) ) ;
#203 = VECTOR ( 'NONE', #65, 1000.000000000000000 ) ;
#204 = ORIENTED_EDGE ( 'NONE', *, *, #44, .F. ) ;
#205 = CARTESIAN_POINT ( 'NONE',  ( 0.000000000000000000, 3.000000000000000000, 0.000000000000000000 ) ) ;
#206 = CARTESIAN_POINT ( 'NONE',  ( 11.25000000000000000, 0.000000000000000000, -11.99999999999999822 ) ) ;
#207 = VERTEX_POINT ( 'NONE', #208 ) ;
#208 = CARTESIAN_POINT ( 'NONE',  ( 0.000000000000000000, 0.000000000000000000, -2.149999999999999911 ) ) ;
#209 = PRESENTATION_LAYER_ASSIGNMENT (  '', '', ( #13 ) ) ;
#210 = DIRECTION ( 'NONE',  ( 0.000000000000000000, 1.000000000000000000, 0.000000000000000000 ) ) ;
#211 = VECTOR ( 'NONE', #96, 1000.000000000000000 ) ;
#212 = EDGE_LOOP ( 'NONE', ( #28, #133, #11, #63 ) ) ;
#213 = MANIFOLD_SOLID_BREP ( 'Schnitt-Linear austragen1', #200 ) ;
#214 = ORIENTED_EDGE ( 'NONE', *, *, #117, .F. ) ;
#215 = APPLICATION_PROTOCOL_DEFINITION ( 'draft international standard', 'automotive_design', 1998, #168 ) ;
#216 = AXIS2_PLACEMENT_3D ( 'NONE', #185, #183, #165 ) ;
#217 = SURFACE_STYLE_USAGE ( .BOTH. , #112 ) ;
#218 = ORIENTED_EDGE ( 'NONE', *, *, #264, .T. ) ;
#219 = ORIENTED_EDGE ( 'NONE', *, *, #53, .F. ) ;
#220 = AXIS2_PLACEMENT_3D ( 'NONE', #249, #15, #137 ) ;
#221 = DIRECTION ( 'NONE',  ( -0.000000000000000000, 1.000000000000000000, -0.000000000000000000 ) ) ;
#222 = LINE ( 'NONE', #59, #122 ) ;
#223 = CARTESIAN_POINT ( 'NONE',  ( -11.25000000000000355, 0.000000000000000000, 8.500000000000001776 ) ) ;
#224 = DIRECTION ( 'NONE',  ( 0.000000000000000000, -1.000000000000000000, 0.000000000000000000 ) ) ;
#225 = CARTESIAN_POINT ( 'NONE',  ( -11.25000000000000711, 3.000000000000000000, -11.99999999999999822 ) ) ;
#226 = LINE ( 'NONE', #190, #211 ) ;
#227 = CIRCLE ( 'NONE', #256, 2.149999999999999911 ) ;
#228 = VERTEX_POINT ( 'NONE', #21 ) ;
#229 = PLANE ( 'NONE',  #172 ) ;
#230 =( NAMED_UNIT ( * ) SI_UNIT ( $, .STERADIAN. ) SOLID_ANGLE_UNIT ( ) );
#231 = EDGE_CURVE ( 'NONE', #241, #142, #92, .T. ) ;
#232 = CARTESIAN_POINT ( 'NONE',  ( 0.000000000000000000, 3.000000000000000000, -2.149999999999999911 ) ) ;
#233 = FILL_AREA_STYLE ('',( #67 ) ) ;
#234 = CARTESIAN_POINT ( 'NONE',  ( 2.632990618166809235E-16, 3.000000000000000000, 2.149999999999999911 ) ) ;
#235 = EDGE_CURVE ( 'NONE', #238, #244, #259, .T. ) ;
#236 =( LENGTH_UNIT ( ) NAMED_UNIT ( * ) SI_UNIT ( .MILLI., .METRE. ) );
#237 = ORIENTED_EDGE ( 'NONE', *, *, #9, .F. ) ;
#238 = VERTEX_POINT ( 'NONE', #42 ) ;
#239 = COLOUR_RGB ( '',0.7529411764705882248, 1.000000000000000000, 0.7529411764705882248 ) ;
#240 = ORIENTED_EDGE ( 'NONE', *, *, #81, .T. ) ;
#241 = VERTEX_POINT ( 'NONE', #139 ) ;
#242 = UNCERTAINTY_MEASURE_WITH_UNIT (LENGTH_MEASURE( 1.000000000000000082E-05 ), #260, 'distance_accuracy_value', 'NONE');
#243 = MECHANICAL_DESIGN_GEOMETRIC_PRESENTATION_REPRESENTATION (  '', ( #50 ), #262 ) ;
#244 = VERTEX_POINT ( 'NONE', #107 ) ;
#245 = CARTESIAN_POINT ( 'NONE',  ( 0.000000000000000000, 3.000000000000000000, -2.149999999999999911 ) ) ;
#246 = EDGE_CURVE ( 'NONE', #253, #142, #66, .T. ) ;
#247 = DIRECTION ( 'NONE',  ( 0.000000000000000000, 0.000000000000000000, -1.000000000000000000 ) ) ;
#248 = ORIENTED_EDGE ( 'NONE', *, *, #196, .T. ) ;
#249 = CARTESIAN_POINT ( 'NONE',  ( 0.000000000000000000, 0.000000000000000000, 0.000000000000000000 ) ) ;
#250 = CARTESIAN_POINT ( 'NONE',  ( 11.24999999999999645, 0.000000000000000000, 8.500000000000001776 ) ) ;
#251 = CARTESIAN_POINT ( 'NONE',  ( 0.000000000000000000, 3.000000000000000000, 0.000000000000000000 ) ) ;
#252 = EDGE_LOOP ( 'NONE', ( #37, #240, #169, #214 ) ) ;
#253 = VERTEX_POINT ( 'NONE', #250 ) ;
#254 = CARTESIAN_POINT ( 'NONE',  ( 11.25000000000000000, 3.000000000000000000, -11.99999999999999822 ) ) ;
#255 = DIRECTION ( 'NONE',  ( -1.000000000000000000, -0.000000000000000000, -0.000000000000000000 ) ) ;
#256 = AXIS2_PLACEMENT_3D ( 'NONE', #205, #102, #19 ) ;
#257 = CARTESIAN_POINT ( 'NONE',  ( -11.25000000000000355, 0.000000000000000000, 8.500000000000001776 ) ) ;
#258 = PLANE ( 'NONE',  #32 ) ;
#259 = LINE ( 'NONE', #234, #203 ) ;
#260 =( LENGTH_UNIT ( ) NAMED_UNIT ( * ) SI_UNIT ( .MILLI., .METRE. ) );
#261 = VECTOR ( 'NONE', #82, 1000.000000000000000 ) ;
#262 =( GEOMETRIC_REPRESENTATION_CONTEXT ( 3 ) GLOBAL_UNCERTAINTY_ASSIGNED_CONTEXT ( ( #86 ) ) GLOBAL_UNIT_ASSIGNED_CONTEXT ( ( #106, #127, #230 ) ) REPRESENTATION_CONTEXT ( 'NONE', 'WORKASPACE' ) );
#263 = ADVANCED_FACE ( 'NONE', ( #27 ), #68, .F. ) ;
#264 = EDGE_CURVE ( 'NONE', #104, #228, #226, .T. ) ;
#265 = CYLINDRICAL_SURFACE ( 'NONE', #4, 2.149999999999999911 ) ;
#266 = ADVANCED_FACE ( 'NONE', ( #146, #121 ), #258, .T. ) ;
#267 = DIRECTION ( 'NONE',  ( -1.000000000000000000, 0.000000000000000000, -1.445602896647339163E-16 ) ) ;
#268 = PRODUCT_DEFINITION ( 'UNKNOWN', '', #157, #197 ) ;
#269 = CARTESIAN_POINT ( 'NONE',  ( -11.25000000000000355, 0.000000000000000000, 8.500000000000001776 ) ) ;
#270 = CARTESIAN_POINT ( 'NONE',  ( 11.25000000000000000, 3.000000000000000000, -11.99999999999999822 ) ) ;
#271 = CARTESIAN_POINT ( 'NONE',  ( -11.25000000000000355, 0.000000000000000000, 8.500000000000001776 ) ) ;
#272 = DIRECTION ( 'NONE',  ( 1.000000000000000000, 0.000000000000000000, -0.000000000000000000 ) ) ;
#273 = CARTESIAN_POINT ( 'NONE',  ( -11.25000000000000711, 3.000000000000000000, -11.99999999999999822 ) ) ;
#274 = CIRCLE ( 'NONE', #220, 2.149999999999999911 ) ;
#275 = DIRECTION ( 'NONE',  ( 0.000000000000000000, 0.000000000000000000, 1.000000000000000000 ) ) ;
#276 = AXIS2_PLACEMENT_3D ( 'NONE', #273, #47, #5 ) ;
ENDSEC;
END-ISO-10303-21;
