ISO-10303-21;
HEADER;
FILE_DESCRIPTION (( 'STEP AP214' ),
    '1' );
FILE_NAME ('12681~3.STEP',
    '2019-04-23T07:06:51',
    ( '' ),
    ( '' ),
    'SwSTEP 2.0',
    'SolidWorks 2018',
    '' );
FILE_SCHEMA (( 'AUTOMOTIVE_DESIGN' ));
ENDSEC;

DATA;
#1 = ORIENTED_EDGE ( 'NONE', *, *, #49, .T. ) ;
#2 =( GEOMETRIC_REPRESENTATION_CONTEXT ( 3 ) GLOBAL_UNCERTAINTY_ASSIGNED_CONTEXT ( ( #205 ) ) GLOBAL_UNIT_ASSIGNED_CONTEXT ( ( #147, #39, #58 ) ) REPRESENTATION_CONTEXT ( 'NONE', 'WORKASPACE' ) );
#3 = PRESENTATION_STYLE_ASSIGNMENT (( #152 ) ) ;
#4 = EDGE_LOOP ( 'NONE', ( #38, #55, #137, #134 ) ) ;
#5 = EDGE_CURVE ( 'NONE', #196, #163, #113, .T. ) ;
#6 = SURFACE_SIDE_STYLE ('',( #183 ) ) ;
#7 = DIRECTION ( 'NONE',  ( 0.0000000000000000000, 0.0000000000000000000, -1.000000000000000000 ) ) ;
#8 = CYLINDRICAL_SURFACE ( 'NONE', #162, 2.500000000000000444 ) ;
#9 = CARTESIAN_POINT ( 'NONE',  ( 2.811240216718117222E-15, -10.00000000000000178, 0.0000000000000000000 ) ) ;
#10 = DIRECTION ( 'NONE',  ( 0.0000000000000000000, 0.0000000000000000000, -1.000000000000000000 ) ) ;
#11 = FACE_OUTER_BOUND ( 'NONE', #4, .T. ) ;
#12 = ADVANCED_FACE ( 'NONE', ( #184, #99 ), #158, .T. ) ;
#13 = FACE_OUTER_BOUND ( 'NONE', #202, .T. ) ;
#14 = SURFACE_STYLE_FILL_AREA ( #24 ) ;
#15 = ORIENTED_EDGE ( 'NONE', *, *, #80, .T. ) ;
#16 = EDGE_CURVE ( 'NONE', #146, #156, #127, .T. ) ;
#17 = AXIS2_PLACEMENT_3D ( 'NONE', #52, #120, #142 ) ;
#18 = DIRECTION ( 'NONE',  ( -0.0000000000000000000, -1.000000000000000000, -0.0000000000000000000 ) ) ;
#19 = UNCERTAINTY_MEASURE_WITH_UNIT (LENGTH_MEASURE( 1.000000000000000082E-05 ), #124, 'distance_accuracy_value', 'NONE');
#20 = EDGE_CURVE ( 'NONE', #133, #220, #160, .T. ) ;
#21 =( NAMED_UNIT ( * ) SI_UNIT ( $, .STERADIAN. ) SOLID_ANGLE_UNIT ( ) );
#22 = ORIENTED_EDGE ( 'NONE', *, *, #153, .F. ) ;
#23 = CARTESIAN_POINT ( 'NONE',  ( 0.0000000000000000000, -5.000000000000002665, 0.0000000000000000000 ) ) ;
#24 = FILL_AREA_STYLE ('',( #75 ) ) ;
#25 = DIRECTION ( 'NONE',  ( 0.0000000000000000000, 1.000000000000000000, 0.0000000000000000000 ) ) ;
#26 = VERTEX_POINT ( 'NONE', #186 ) ;
#27 = MECHANICAL_DESIGN_GEOMETRIC_PRESENTATION_REPRESENTATION (  '', ( #43 ), #2 ) ;
#28 = LINE ( 'NONE', #213, #54 ) ;
#29 = CARTESIAN_POINT ( 'NONE',  ( 2.500000000000001776, -5.000000000000002665, 0.0000000000000000000 ) ) ;
#30 = PRODUCT_DEFINITION ( 'UNKNOWN', '', #105, #176 ) ;
#31 = DIRECTION ( 'NONE',  ( -0.0000000000000000000, -1.000000000000000000, -0.0000000000000000000 ) ) ;
#32 = DIRECTION ( 'NONE',  ( -0.0000000000000000000, -1.000000000000000000, -0.0000000000000000000 ) ) ;
#33 = CIRCLE ( 'NONE', #71, 1.500000000000003109 ) ;
#34 = ORIENTED_EDGE ( 'NONE', *, *, #20, .T. ) ;
#35 = SURFACE_STYLE_USAGE ( .BOTH. , #6 ) ;
#36 = PRODUCT_CONTEXT ( 'NONE', #149, 'mechanical' ) ;
#37 = PRODUCT ( '12681~3', '12681~3', '', ( #36 ) ) ;
#38 = ORIENTED_EDGE ( 'NONE', *, *, #203, .T. ) ;
#39 =( NAMED_UNIT ( * ) PLANE_ANGLE_UNIT ( ) SI_UNIT ( $, .RADIAN. ) );
#40 = ORIENTED_EDGE ( 'NONE', *, *, #42, .F. ) ;
#41 = EDGE_LOOP ( 'NONE', ( #204, #169 ) ) ;
#42 = EDGE_CURVE ( 'NONE', #163, #196, #33, .T. ) ;
#43 = STYLED_ITEM ( 'NONE', ( #3 ), #155 ) ;
#44 = AXIS2_PLACEMENT_3D ( 'NONE', #209, #18, #136 ) ;
#45 = DIRECTION ( 'NONE',  ( 0.0000000000000000000, 0.0000000000000000000, -1.000000000000000000 ) ) ;
#46 = DIRECTION ( 'NONE',  ( 0.0000000000000000000, -1.000000000000000000, -0.0000000000000000000 ) ) ;
#47 = LINE ( 'NONE', #63, #78 ) ;
#48 = CARTESIAN_POINT ( 'NONE',  ( 0.0000000000000000000, -5.000000000000002665, 0.0000000000000000000 ) ) ;
#49 = EDGE_CURVE ( 'NONE', #220, #133, #79, .T. ) ;
#50 = CYLINDRICAL_SURFACE ( 'NONE', #211, 1.500000000000002442 ) ;
#51 = FILL_AREA_STYLE ('',( #88 ) ) ;
#52 = CARTESIAN_POINT ( 'NONE',  ( 0.0000000000000000000, -5.000000000000002665, 0.0000000000000000000 ) ) ;
#53 = CARTESIAN_POINT ( 'NONE',  ( 0.0000000000000000000, -5.000000000000002665, -2.500000000000001776 ) ) ;
#54 = VECTOR ( 'NONE', #106, 1000.000000000000000 ) ;
#55 = ORIENTED_EDGE ( 'NONE', *, *, #112, .T. ) ;
#56 = DIRECTION ( 'NONE',  ( 0.0000000000000000000, 0.0000000000000000000, -1.000000000000000000 ) ) ;
#57 = CARTESIAN_POINT ( 'NONE',  ( 0.0000000000000000000, 9.999999999999994671, -2.499999999999999556 ) ) ;
#58 =( NAMED_UNIT ( * ) SI_UNIT ( $, .STERADIAN. ) SOLID_ANGLE_UNIT ( ) );
#59 = AXIS2_PLACEMENT_3D ( 'NONE', #29, #46, #85 ) ;
#60 = EDGE_LOOP ( 'NONE', ( #1, #173, #22, #61 ) ) ;
#61 = ORIENTED_EDGE ( 'NONE', *, *, #80, .F. ) ;
#62 = DIRECTION ( 'NONE',  ( -0.0000000000000000000, -1.000000000000000000, -0.0000000000000000000 ) ) ;
#63 = CARTESIAN_POINT ( 'NONE',  ( 0.0000000000000000000, -18.74568690095845724, -2.500000000000000444 ) ) ;
#64 = DIRECTION ( 'NONE',  ( 0.0000000000000000000, 0.0000000000000000000, -1.000000000000000000 ) ) ;
#65 = ORIENTED_EDGE ( 'NONE', *, *, #206, .T. ) ;
#66 = CARTESIAN_POINT ( 'NONE',  ( 0.0000000000000000000, -18.74568690095845724, 0.0000000000000000000 ) ) ;
#67 = AXIS2_PLACEMENT_3D ( 'NONE', #73, #181, #96 ) ;
#68 = CARTESIAN_POINT ( 'NONE',  ( 1.836970198721033385E-16, -10.00000000000000355, 1.500000000000003109 ) ) ;
#69 = AXIS2_PLACEMENT_3D ( 'NONE', #83, #100, #187 ) ;
#70 = LINE ( 'NONE', #190, #207 ) ;
#71 = AXIS2_PLACEMENT_3D ( 'NONE', #159, #31, #87 ) ;
#72 =( NAMED_UNIT ( * ) PLANE_ANGLE_UNIT ( ) SI_UNIT ( $, .RADIAN. ) );
#73 = CARTESIAN_POINT ( 'NONE',  ( 0.0000000000000000000, 0.0000000000000000000, 0.0000000000000000000 ) ) ;
#74 = CYLINDRICAL_SURFACE ( 'NONE', #44, 2.500000000000000444 ) ;
#75 = FILL_AREA_STYLE_COLOUR ( '', #91 ) ;
#76 = PLANE ( 'NONE',  #218 ) ;
#77 = CYLINDRICAL_SURFACE ( 'NONE', #84, 1.500000000000002442 ) ;
#78 = VECTOR ( 'NONE', #62, 1000.000000000000000 ) ;
#79 = CIRCLE ( 'NONE', #140, 2.499999999999999556 ) ;
#80 = EDGE_CURVE ( 'NONE', #220, #156, #47, .T. ) ;
#81 = VECTOR ( 'NONE', #214, 1000.000000000000000 ) ;
#82 = ORIENTED_EDGE ( 'NONE', *, *, #153, .T. ) ;
#83 = CARTESIAN_POINT ( 'NONE',  ( 0.0000000000000000000, 9.999999999999994671, 0.0000000000000000000 ) ) ;
#84 = AXIS2_PLACEMENT_3D ( 'NONE', #189, #32, #180 ) ;
#85 = DIRECTION ( 'NONE',  ( 0.0000000000000000000, 0.0000000000000000000, -1.000000000000000000 ) ) ;
#86 = ORIENTED_EDGE ( 'NONE', *, *, #20, .F. ) ;
#87 = DIRECTION ( 'NONE',  ( 0.0000000000000000000, 0.0000000000000000000, -1.000000000000000000 ) ) ;
#88 = FILL_AREA_STYLE_COLOUR ( '', #150 ) ;
#89 = CARTESIAN_POINT ( 'NONE',  ( 3.061616997868383141E-16, 9.999999999999994671, 2.499999999999999556 ) ) ;
#90 = AXIS2_PLACEMENT_3D ( 'NONE', #9, #210, #125 ) ;
#91 = COLOUR_RGB ( '',1.000000000000000000, 1.000000000000000000, 1.000000000000000000 ) ;
#92 = ORIENTED_EDGE ( 'NONE', *, *, #16, .F. ) ;
#93 = DIRECTION ( 'NONE',  ( 0.0000000000000000000, -0.0000000000000000000, 1.000000000000000000 ) ) ;
#94 = CIRCLE ( 'NONE', #135, 1.500000000000001776 ) ;
#95 = ORIENTED_EDGE ( 'NONE', *, *, #16, .T. ) ;
#96 = DIRECTION ( 'NONE',  ( 1.000000000000000000, 0.0000000000000000000, 0.0000000000000000000 ) ) ;
#97 = ADVANCED_FACE ( 'NONE', ( #216 ), #74, .T. ) ;
#98 = ADVANCED_FACE ( 'NONE', ( #11 ), #77, .T. ) ;
#99 = FACE_BOUND ( 'NONE', #41, .T. ) ;
#100 = DIRECTION ( 'NONE',  ( -0.0000000000000000000, -1.000000000000000000, -0.0000000000000000000 ) ) ;
#101 = EDGE_LOOP ( 'NONE', ( #82, #95 ) ) ;
#102 = CARTESIAN_POINT ( 'NONE',  ( 3.061616997868385113E-16, -5.000000000000002665, 2.500000000000001776 ) ) ;
#103 = LINE ( 'NONE', #194, #81 ) ;
#104 = DIRECTION ( 'NONE',  ( -0.0000000000000000000, -1.000000000000000000, -0.0000000000000000000 ) ) ;
#105 = PRODUCT_DEFINITION_FORMATION_WITH_SPECIFIED_SOURCE ( 'ANY', '', #37, .NOT_KNOWN. ) ;
#106 = DIRECTION ( 'NONE',  ( -0.0000000000000000000, -1.000000000000000000, -0.0000000000000000000 ) ) ;
#107 = DIRECTION ( 'NONE',  ( -0.0000000000000000000, -1.000000000000000000, -0.0000000000000000000 ) ) ;
#108 = SHAPE_DEFINITION_REPRESENTATION ( #208, #155 ) ;
#109 = ORIENTED_EDGE ( 'NONE', *, *, #114, .F. ) ;
#110 =( LENGTH_UNIT ( ) NAMED_UNIT ( * ) SI_UNIT ( .MILLI., .METRE. ) );
#111 = ORIENTED_EDGE ( 'NONE', *, *, #49, .F. ) ;
#112 = EDGE_CURVE ( 'NONE', #26, #163, #70, .T. ) ;
#113 = CIRCLE ( 'NONE', #128, 1.500000000000003109 ) ;
#114 = EDGE_CURVE ( 'NONE', #133, #146, #28, .T. ) ;
#115 = EDGE_LOOP ( 'NONE', ( #118, #175, #65, #40 ) ) ;
#116 = STYLED_ITEM ( 'NONE', ( #191 ), #141 ) ;
#117 = DIRECTION ( 'NONE',  ( -0.0000000000000000000, -1.000000000000000000, -0.0000000000000000000 ) ) ;
#118 = ORIENTED_EDGE ( 'NONE', *, *, #112, .F. ) ;
#119 = DIRECTION ( 'NONE',  ( -0.0000000000000000000, -1.000000000000000000, -0.0000000000000000000 ) ) ;
#120 = DIRECTION ( 'NONE',  ( -0.0000000000000000000, -1.000000000000000000, -0.0000000000000000000 ) ) ;
#121 = AXIS2_PLACEMENT_3D ( 'NONE', #23, #107, #10 ) ;
#122 =( NAMED_UNIT ( * ) PLANE_ANGLE_UNIT ( ) SI_UNIT ( $, .RADIAN. ) );
#123 = FACE_OUTER_BOUND ( 'NONE', #115, .T. ) ;
#124 =( LENGTH_UNIT ( ) NAMED_UNIT ( * ) SI_UNIT ( .MILLI., .METRE. ) );
#125 = DIRECTION ( 'NONE',  ( 0.0000000000000000000, 0.0000000000000000000, -1.000000000000000000 ) ) ;
#126 = DIRECTION ( 'NONE',  ( -0.0000000000000000000, -1.000000000000000000, -0.0000000000000000000 ) ) ;
#127 = CIRCLE ( 'NONE', #185, 2.500000000000001776 ) ;
#128 = AXIS2_PLACEMENT_3D ( 'NONE', #177, #139, #64 ) ;
#129 = APPLICATION_PROTOCOL_DEFINITION ( 'draft international standard', 'automotive_design', 1998, #164 ) ;
#130 = CARTESIAN_POINT ( 'NONE',  ( 3.620275090733631004E-16, 9.999999999999994671, 0.0000000000000000000 ) ) ;
#131 = ADVANCED_FACE ( 'NONE', ( #123 ), #50, .T. ) ;
#132 = FACE_OUTER_BOUND ( 'NONE', #188, .T. ) ;
#133 = VERTEX_POINT ( 'NONE', #89 ) ;
#134 = ORIENTED_EDGE ( 'NONE', *, *, #206, .F. ) ;
#135 = AXIS2_PLACEMENT_3D ( 'NONE', #167, #126, #56 ) ;
#136 = DIRECTION ( 'NONE',  ( 0.0000000000000000000, 0.0000000000000000000, -1.000000000000000000 ) ) ;
#137 = ORIENTED_EDGE ( 'NONE', *, *, #5, .F. ) ;
#138 = DIRECTION ( 'NONE',  ( -0.0000000000000000000, -1.000000000000000000, -0.0000000000000000000 ) ) ;
#139 = DIRECTION ( 'NONE',  ( -0.0000000000000000000, -1.000000000000000000, -0.0000000000000000000 ) ) ;
#140 = AXIS2_PLACEMENT_3D ( 'NONE', #157, #138, #174 ) ;
#141 = MANIFOLD_SOLID_BREP ( 'Rotation1', #219 ) ;
#142 = DIRECTION ( 'NONE',  ( 0.0000000000000000000, 0.0000000000000000000, -1.000000000000000000 ) ) ;
#143 = PRODUCT_RELATED_PRODUCT_CATEGORY ( 'part', '', ( #37 ) ) ;
#144 = DIRECTION ( 'NONE',  ( 0.0000000000000000000, 0.0000000000000000000, -1.000000000000000000 ) ) ;
#145 = CARTESIAN_POINT ( 'NONE',  ( 0.0000000000000000000, -18.74568690095845724, 0.0000000000000000000 ) ) ;
#146 = VERTEX_POINT ( 'NONE', #102 ) ;
#147 =( LENGTH_UNIT ( ) NAMED_UNIT ( * ) SI_UNIT ( .MILLI., .METRE. ) );
#148 = PRESENTATION_LAYER_ASSIGNMENT (  '', '', ( #43 ) ) ;
#149 = APPLICATION_CONTEXT ( 'automotive_design' ) ;
#150 = COLOUR_RGB ( '',1.000000000000000000, 1.000000000000000000, 1.000000000000000000 ) ;
#151 = ADVANCED_FACE ( 'NONE', ( #179 ), #178, .T. ) ;
#152 = SURFACE_STYLE_USAGE ( .BOTH. , #198 ) ;
#153 = EDGE_CURVE ( 'NONE', #156, #146, #195, .T. ) ;
#154 = ORIENTED_EDGE ( 'NONE', *, *, #42, .T. ) ;
#155 = ADVANCED_BREP_SHAPE_REPRESENTATION ( '12681~3', ( #141, #67 ), #193 ) ;
#156 = VERTEX_POINT ( 'NONE', #53 ) ;
#157 = CARTESIAN_POINT ( 'NONE',  ( 0.0000000000000000000, 9.999999999999994671, 0.0000000000000000000 ) ) ;
#158 = PLANE ( 'NONE',  #59 ) ;
#159 = CARTESIAN_POINT ( 'NONE',  ( 0.0000000000000000000, -10.00000000000000355, 0.0000000000000000000 ) ) ;
#160 = CIRCLE ( 'NONE', #69, 2.499999999999999556 ) ;
#161 = DIRECTION ( 'NONE',  ( -0.0000000000000000000, -1.000000000000000000, -0.0000000000000000000 ) ) ;
#162 = AXIS2_PLACEMENT_3D ( 'NONE', #66, #104, #7 ) ;
#163 = VERTEX_POINT ( 'NONE', #68 ) ;
#164 = APPLICATION_CONTEXT ( 'automotive_design' ) ;
#165 = EDGE_LOOP ( 'NONE', ( #171, #154 ) ) ;
#166 = PRESENTATION_LAYER_ASSIGNMENT (  '', '', ( #116 ) ) ;
#167 = CARTESIAN_POINT ( 'NONE',  ( 0.0000000000000000000, -5.000000000000002665, 0.0000000000000000000 ) ) ;
#168 = ADVANCED_FACE ( 'NONE', ( #13 ), #8, .T. ) ;
#169 = ORIENTED_EDGE ( 'NONE', *, *, #215, .F. ) ;
#170 = UNCERTAINTY_MEASURE_WITH_UNIT (LENGTH_MEASURE( 1.000000000000000082E-05 ), #110, 'distance_accuracy_value', 'NONE');
#171 = ORIENTED_EDGE ( 'NONE', *, *, #5, .T. ) ;
#172 = MECHANICAL_DESIGN_GEOMETRIC_PRESENTATION_REPRESENTATION (  '', ( #116 ), #199 ) ;
#173 = ORIENTED_EDGE ( 'NONE', *, *, #114, .T. ) ;
#174 = DIRECTION ( 'NONE',  ( 0.0000000000000000000, 0.0000000000000000000, -1.000000000000000000 ) ) ;
#175 = ORIENTED_EDGE ( 'NONE', *, *, #215, .T. ) ;
#176 = PRODUCT_DEFINITION_CONTEXT ( 'detailed design', #164, 'design' ) ;
#177 = CARTESIAN_POINT ( 'NONE',  ( 0.0000000000000000000, -10.00000000000000355, 0.0000000000000000000 ) ) ;
#178 = PLANE ( 'NONE',  #90 ) ;
#179 = FACE_OUTER_BOUND ( 'NONE', #165, .T. ) ;
#180 = DIRECTION ( 'NONE',  ( 0.0000000000000000000, 0.0000000000000000000, -1.000000000000000000 ) ) ;
#181 = DIRECTION ( 'NONE',  ( 0.0000000000000000000, 0.0000000000000000000, 1.000000000000000000 ) ) ;
#182 = VERTEX_POINT ( 'NONE', #192 ) ;
#183 = SURFACE_STYLE_FILL_AREA ( #51 ) ;
#184 = FACE_OUTER_BOUND ( 'NONE', #101, .T. ) ;
#185 = AXIS2_PLACEMENT_3D ( 'NONE', #48, #117, #45 ) ;
#186 = CARTESIAN_POINT ( 'NONE',  ( 1.836970198721031906E-16, -5.000000000000002665, 1.500000000000001776 ) ) ;
#187 = DIRECTION ( 'NONE',  ( 0.0000000000000000000, 0.0000000000000000000, -1.000000000000000000 ) ) ;
#188 = EDGE_LOOP ( 'NONE', ( #111, #86 ) ) ;
#189 = CARTESIAN_POINT ( 'NONE',  ( 0.0000000000000000000, -18.74568690095845724, 0.0000000000000000000 ) ) ;
#190 = CARTESIAN_POINT ( 'NONE',  ( 1.836970198721032646E-16, -18.74568690095845724, 1.500000000000002442 ) ) ;
#191 = PRESENTATION_STYLE_ASSIGNMENT (( #35 ) ) ;
#192 = CARTESIAN_POINT ( 'NONE',  ( 0.0000000000000000000, -5.000000000000002665, -1.500000000000001776 ) ) ;
#193 =( GEOMETRIC_REPRESENTATION_CONTEXT ( 3 ) GLOBAL_UNCERTAINTY_ASSIGNED_CONTEXT ( ( #170 ) ) GLOBAL_UNIT_ASSIGNED_CONTEXT ( ( #110, #72, #201 ) ) REPRESENTATION_CONTEXT ( 'NONE', 'WORKASPACE' ) );
#194 = CARTESIAN_POINT ( 'NONE',  ( 0.0000000000000000000, -18.74568690095845724, -1.500000000000002442 ) ) ;
#195 = CIRCLE ( 'NONE', #17, 2.500000000000001776 ) ;
#196 = VERTEX_POINT ( 'NONE', #212 ) ;
#197 = APPLICATION_PROTOCOL_DEFINITION ( 'draft international standard', 'automotive_design', 1998, #149 ) ;
#198 = SURFACE_SIDE_STYLE ('',( #14 ) ) ;
#199 =( GEOMETRIC_REPRESENTATION_CONTEXT ( 3 ) GLOBAL_UNCERTAINTY_ASSIGNED_CONTEXT ( ( #19 ) ) GLOBAL_UNIT_ASSIGNED_CONTEXT ( ( #124, #122, #21 ) ) REPRESENTATION_CONTEXT ( 'NONE', 'WORKASPACE' ) );
#200 = CIRCLE ( 'NONE', #121, 1.500000000000001776 ) ;
#201 =( NAMED_UNIT ( * ) SI_UNIT ( $, .STERADIAN. ) SOLID_ANGLE_UNIT ( ) );
#202 = EDGE_LOOP ( 'NONE', ( #109, #34, #15, #92 ) ) ;
#203 = EDGE_CURVE ( 'NONE', #182, #26, #200, .T. ) ;
#204 = ORIENTED_EDGE ( 'NONE', *, *, #203, .F. ) ;
#205 = UNCERTAINTY_MEASURE_WITH_UNIT (LENGTH_MEASURE( 1.000000000000000082E-05 ), #147, 'distance_accuracy_value', 'NONE');
#206 = EDGE_CURVE ( 'NONE', #182, #196, #103, .T. ) ;
#207 = VECTOR ( 'NONE', #119, 1000.000000000000000 ) ;
#208 = PRODUCT_DEFINITION_SHAPE ( 'NONE', 'NONE',  #30 ) ;
#209 = CARTESIAN_POINT ( 'NONE',  ( 0.0000000000000000000, -18.74568690095845724, 0.0000000000000000000 ) ) ;
#210 = DIRECTION ( 'NONE',  ( 0.0000000000000000000, -1.000000000000000000, -0.0000000000000000000 ) ) ;
#211 = AXIS2_PLACEMENT_3D ( 'NONE', #145, #161, #144 ) ;
#212 = CARTESIAN_POINT ( 'NONE',  ( 0.0000000000000000000, -10.00000000000000355, -1.500000000000003109 ) ) ;
#213 = CARTESIAN_POINT ( 'NONE',  ( 3.061616997868383634E-16, -18.74568690095845724, 2.500000000000000444 ) ) ;
#214 = DIRECTION ( 'NONE',  ( -0.0000000000000000000, -1.000000000000000000, -0.0000000000000000000 ) ) ;
#215 = EDGE_CURVE ( 'NONE', #26, #182, #94, .T. ) ;
#216 = FACE_OUTER_BOUND ( 'NONE', #60, .T. ) ;
#217 = ADVANCED_FACE ( 'NONE', ( #132 ), #76, .T. ) ;
#218 = AXIS2_PLACEMENT_3D ( 'NONE', #130, #25, #93 ) ;
#219 = CLOSED_SHELL ( 'NONE', ( #98, #97, #217, #168, #12, #131, #151 ) ) ;
#220 = VERTEX_POINT ( 'NONE', #57 ) ;
ENDSEC;
END-ISO-10303-21;
