ISO-10303-21;
HEADER;
FILE_DESCRIPTION (( 'STEP AP214' ),
    '1' );
FILE_NAME ('11890~0.STEP',
    '2018-12-10T14:26:13',
    ( '' ),
    ( '' ),
    'SwSTEP 2.0',
    'SolidWorks 2018',
    '' );
FILE_SCHEMA (( 'AUTOMOTIVE_DESIGN' ));
ENDSEC;

DATA;
#1 = CARTESIAN_POINT ( 'NONE',  ( 0.0000000000000000000, 6.100000000000000533, 0.0000000000000000000 ) ) ;
#2 = CYLINDRICAL_SURFACE ( 'NONE', #45, 3.050000000000000711 ) ;
#3 = ADVANCED_FACE ( 'NONE', ( #100 ), #19, .T. ) ;
#4 = ORIENTED_EDGE ( 'NONE', *, *, #138, .T. ) ;
#5 =( NAMED_UNIT ( * ) SI_UNIT ( $, .STERADIAN. ) SOLID_ANGLE_UNIT ( ) );
#6 =( NAMED_UNIT ( * ) PLANE_ANGLE_UNIT ( ) SI_UNIT ( $, .RADIAN. ) );
#7 = SURFACE_SIDE_STYLE ('',( #161 ) ) ;
#8 = CARTESIAN_POINT ( 'NONE',  ( 3.735172737399428132E-16, 1.500000000000000000, 3.050000000000000711 ) ) ;
#9 = ORIENTED_EDGE ( 'NONE', *, *, #54, .F. ) ;
#10 = APPLICATION_PROTOCOL_DEFINITION ( 'draft international standard', 'automotive_design', 1998, #159 ) ;
#11 = AXIS2_PLACEMENT_3D ( 'NONE', #191, #288, #218 ) ;
#12 = CARTESIAN_POINT ( 'NONE',  ( 0.0000000000000000000, 1.500000000000000000, 0.0000000000000000000 ) ) ;
#13 = CIRCLE ( 'NONE', #18, 3.050000000000000711 ) ;
#14 = VERTEX_POINT ( 'NONE', #89 ) ;
#15 = PRESENTATION_LAYER_ASSIGNMENT (  '', '', ( #84 ) ) ;
#16 = CONICAL_SURFACE ( 'NONE', #189, 3.100000000000000089, 0.7853981633974482790 ) ;
#17 = VERTEX_POINT ( 'NONE', #117 ) ;
#18 = AXIS2_PLACEMENT_3D ( 'NONE', #182, #110, #109 ) ;
#19 = PLANE ( 'NONE',  #90 ) ;
#20 = VECTOR ( 'NONE', #171, 1000.000000000000000 ) ;
#21 = EDGE_LOOP ( 'NONE', ( #207, #282 ) ) ;
#22 = CARTESIAN_POINT ( 'NONE',  ( 3.735172737399427639E-16, 0.3999999999999997446, -3.050000000000000711 ) ) ;
#23 = CARTESIAN_POINT ( 'NONE',  ( 0.0000000000000000000, 0.3999999999999997446, -3.050000000000000711 ) ) ;
#24 = STYLED_ITEM ( 'NONE', ( #252 ), #233 ) ;
#25 = CARTESIAN_POINT ( 'NONE',  ( 0.0000000000000000000, 1.500000000000000000, -3.050000000000000711 ) ) ;
#26 = ORIENTED_EDGE ( 'NONE', *, *, #209, .T. ) ;
#27 = EDGE_CURVE ( 'NONE', #17, #232, #174, .T. ) ;
#28 = DIRECTION ( 'NONE',  ( -0.0000000000000000000, -1.000000000000000000, -0.0000000000000000000 ) ) ;
#29 = ADVANCED_FACE ( 'NONE', ( #236 ), #40, .T. ) ;
#30 = FACE_OUTER_BOUND ( 'NONE', #166, .T. ) ;
#31 = CARTESIAN_POINT ( 'NONE',  ( 3.735172737399428132E-16, 0.3999999999999997446, 3.050000000000000711 ) ) ;
#32 = VERTEX_POINT ( 'NONE', #25 ) ;
#33 = PRODUCT_DEFINITION_FORMATION_WITH_SPECIFIED_SOURCE ( 'ANY', '', #237, .NOT_KNOWN. ) ;
#34 = DIRECTION ( 'NONE',  ( 0.0000000000000000000, -0.7071067811865474617, -0.7071067811865474617 ) ) ;
#35 = CARTESIAN_POINT ( 'NONE',  ( 4.041334437186265510E-16, 6.500000000000000888, 3.100000000000000089 ) ) ;
#36 = ORIENTED_EDGE ( 'NONE', *, *, #153, .F. ) ;
#37 =( NAMED_UNIT ( * ) SI_UNIT ( $, .STERADIAN. ) SOLID_ANGLE_UNIT ( ) );
#38 = DIRECTION ( 'NONE',  ( 0.0000000000000000000, 0.0000000000000000000, 1.000000000000000000 ) ) ;
#39 = LINE ( 'NONE', #178, #235 ) ;
#40 = CONICAL_SURFACE ( 'NONE', #194, 3.050000000000000711, 0.7853981633974503884 ) ;
#41 = FACE_OUTER_BOUND ( 'NONE', #139, .T. ) ;
#42 = ORIENTED_EDGE ( 'NONE', *, *, #249, .T. ) ;
#43 = DIRECTION ( 'NONE',  ( -0.0000000000000000000, -1.000000000000000000, -0.0000000000000000000 ) ) ;
#44 = ORIENTED_EDGE ( 'NONE', *, *, #98, .F. ) ;
#45 = AXIS2_PLACEMENT_3D ( 'NONE', #124, #196, #263 ) ;
#46 = CARTESIAN_POINT ( 'NONE',  ( 0.0000000000000000000, 6.100000000000000533, -3.500000000000000000 ) ) ;
#47 = LINE ( 'NONE', #154, #170 ) ;
#48 = ORIENTED_EDGE ( 'NONE', *, *, #209, .F. ) ;
#49 = CARTESIAN_POINT ( 'NONE',  ( 0.0000000000000000000, 0.3999999999999997446, 0.0000000000000000000 ) ) ;
#50 = CARTESIAN_POINT ( 'NONE',  ( 0.0000000000000000000, 1.500000000000000000, 0.0000000000000000000 ) ) ;
#51 = PRESENTATION_LAYER_ASSIGNMENT (  '', '', ( #24 ) ) ;
#52 = ORIENTED_EDGE ( 'NONE', *, *, #283, .F. ) ;
#53 = DIRECTION ( 'NONE',  ( -0.0000000000000000000, -1.000000000000000000, -0.0000000000000000000 ) ) ;
#54 = EDGE_CURVE ( 'NONE', #87, #14, #222, .T. ) ;
#55 = CARTESIAN_POINT ( 'NONE',  ( 0.0000000000000000000, 6.500000000000000888, 0.0000000000000000000 ) ) ;
#56 = FACE_OUTER_BOUND ( 'NONE', #180, .T. ) ;
#57 = ORIENTED_EDGE ( 'NONE', *, *, #27, .T. ) ;
#58 = CIRCLE ( 'NONE', #113, 3.050000000000000711 ) ;
#59 = ORIENTED_EDGE ( 'NONE', *, *, #60, .T. ) ;
#60 = EDGE_CURVE ( 'NONE', #32, #313, #58, .T. ) ;
#61 = AXIS2_PLACEMENT_3D ( 'NONE', #155, #268, #132 ) ;
#62 = ORIENTED_EDGE ( 'NONE', *, *, #140, .F. ) ;
#63 = DIRECTION ( 'NONE',  ( 0.0000000000000000000, -0.0000000000000000000, 1.000000000000000000 ) ) ;
#64 = ORIENTED_EDGE ( 'NONE', *, *, #224, .T. ) ;
#65 = DIRECTION ( 'NONE',  ( 8.659560562354932858E-17, -0.7071067811865474617, 0.7071067811865474617 ) ) ;
#66 = CARTESIAN_POINT ( 'NONE',  ( 0.0000000000000000000, 1.500000000000000000, 0.0000000000000000000 ) ) ;
#67 = FACE_OUTER_BOUND ( 'NONE', #108, .T. ) ;
#68 = ORIENTED_EDGE ( 'NONE', *, *, #264, .F. ) ;
#69 = ADVANCED_FACE ( 'NONE', ( #56 ), #179, .T. ) ;
#70 = CARTESIAN_POINT ( 'NONE',  ( 0.0000000000000000000, 0.0000000000000000000, 2.649999999999999023 ) ) ;
#71 = ADVANCED_FACE ( 'NONE', ( #41 ), #125, .T. ) ;
#72 = CARTESIAN_POINT ( 'NONE',  ( 0.0000000000000000000, 1.500000000000000000, 0.0000000000000000000 ) ) ;
#73 = CIRCLE ( 'NONE', #135, 3.500000000000000000 ) ;
#74 = DIRECTION ( 'NONE',  ( 0.0000000000000000000, -1.000000000000000000, 0.0000000000000000000 ) ) ;
#75 = VECTOR ( 'NONE', #65, 1000.000000000000114 ) ;
#76 = ORIENTED_EDGE ( 'NONE', *, *, #60, .F. ) ;
#77 = PRODUCT_DEFINITION ( 'UNKNOWN', '', #33, #271 ) ;
#78 = DIRECTION ( 'NONE',  ( 0.0000000000000000000, -0.0000000000000000000, 1.000000000000000000 ) ) ;
#79 = FILL_AREA_STYLE ('',( #301 ) ) ;
#80 = AXIS2_PLACEMENT_3D ( 'NONE', #195, #28, #247 ) ;
#81 = DIRECTION ( 'NONE',  ( 0.0000000000000000000, 1.000000000000000000, 0.0000000000000000000 ) ) ;
#82 = EDGE_LOOP ( 'NONE', ( #231, #211, #26, #93 ) ) ;
#83 = EDGE_CURVE ( 'NONE', #14, #128, #286, .T. ) ;
#84 = STYLED_ITEM ( 'NONE', ( #156 ), #227 ) ;
#85 = DIRECTION ( 'NONE',  ( -0.0000000000000000000, -1.000000000000000000, -0.0000000000000000000 ) ) ;
#86 = LINE ( 'NONE', #243, #136 ) ;
#87 = VERTEX_POINT ( 'NONE', #70 ) ;
#88 = DIRECTION ( 'NONE',  ( -0.0000000000000000000, 1.000000000000000000, -0.0000000000000000000 ) ) ;
#89 = CARTESIAN_POINT ( 'NONE',  ( 3.490243377569956061E-16, 0.0000000000000000000, -2.649999999999999023 ) ) ;
#90 = AXIS2_PLACEMENT_3D ( 'NONE', #255, #212, #63 ) ;
#91 = CARTESIAN_POINT ( 'NONE',  ( 0.0000000000000000000, 0.3999999999999997446, 0.0000000000000000000 ) ) ;
#92 = LINE ( 'NONE', #97, #75 ) ;
#93 = ORIENTED_EDGE ( 'NONE', *, *, #283, .T. ) ;
#94 = DIRECTION ( 'NONE',  ( 8.659560562354952580E-17, 0.7071067811865460184, -0.7071067811865490160 ) ) ;
#95 = MECHANICAL_DESIGN_GEOMETRIC_PRESENTATION_REPRESENTATION (  '', ( #84 ), #172 ) ;
#96 = ORIENTED_EDGE ( 'NONE', *, *, #224, .F. ) ;
#97 = CARTESIAN_POINT ( 'NONE',  ( 3.796405077356794918E-16, 6.500000000000000888, 3.100000000000000089 ) ) ;
#98 = EDGE_CURVE ( 'NONE', #17, #142, #150, .T. ) ;
#99 = PLANE ( 'NONE',  #240 ) ;
#100 = FACE_OUTER_BOUND ( 'NONE', #21, .T. ) ;
#101 =( LENGTH_UNIT ( ) NAMED_UNIT ( * ) SI_UNIT ( .MILLI., .METRE. ) );
#102 = DIRECTION ( 'NONE',  ( 0.0000000000000000000, -0.0000000000000000000, 1.000000000000000000 ) ) ;
#103 = EDGE_CURVE ( 'NONE', #163, #17, #92, .T. ) ;
#104 = UNCERTAINTY_MEASURE_WITH_UNIT (LENGTH_MEASURE( 1.000000000000000082E-05 ), #304, 'distance_accuracy_value', 'NONE');
#105 = ADVANCED_FACE ( 'NONE', ( #30 ), #274, .T. ) ;
#106 = DIRECTION ( 'NONE',  ( 0.0000000000000000000, 0.0000000000000000000, 1.000000000000000000 ) ) ;
#107 = VERTEX_POINT ( 'NONE', #217 ) ;
#108 = EDGE_LOOP ( 'NONE', ( #165, #213 ) ) ;
#109 = DIRECTION ( 'NONE',  ( 0.0000000000000000000, 0.0000000000000000000, 1.000000000000000000 ) ) ;
#110 = DIRECTION ( 'NONE',  ( 0.0000000000000000000, 1.000000000000000000, 0.0000000000000000000 ) ) ;
#111 = APPLICATION_PROTOCOL_DEFINITION ( 'draft international standard', 'automotive_design', 1998, #230 ) ;
#112 = ORIENTED_EDGE ( 'NONE', *, *, #183, .T. ) ;
#113 = AXIS2_PLACEMENT_3D ( 'NONE', #66, #215, #145 ) ;
#114 = AXIS2_PLACEMENT_3D ( 'NONE', #225, #219, #293 ) ;
#115 = FACE_OUTER_BOUND ( 'NONE', #303, .T. ) ;
#116 =( GEOMETRIC_REPRESENTATION_CONTEXT ( 3 ) GLOBAL_UNCERTAINTY_ASSIGNED_CONTEXT ( ( #181 ) ) GLOBAL_UNIT_ASSIGNED_CONTEXT ( ( #270, #6, #299 ) ) REPRESENTATION_CONTEXT ( 'NONE', 'WORKASPACE' ) );
#117 = CARTESIAN_POINT ( 'NONE',  ( 4.286263797015736595E-16, 6.100000000000000533, 3.500000000000000000 ) ) ;
#118 = ORIENTED_EDGE ( 'NONE', *, *, #162, .F. ) ;
#119 = CYLINDRICAL_SURFACE ( 'NONE', #80, 3.500000000000000000 ) ;
#120 = ORIENTED_EDGE ( 'NONE', *, *, #140, .T. ) ;
#121 = DIRECTION ( 'NONE',  ( 0.0000000000000000000, 0.0000000000000000000, 1.000000000000000000 ) ) ;
#122 = CARTESIAN_POINT ( 'NONE',  ( 0.0000000000000000000, 6.500000000000000888, 0.0000000000000000000 ) ) ;
#123 = SHAPE_DEFINITION_REPRESENTATION ( #317, #227 ) ;
#124 = CARTESIAN_POINT ( 'NONE',  ( 0.0000000000000000000, 1.500000000000000000, 0.0000000000000000000 ) ) ;
#125 = CYLINDRICAL_SURFACE ( 'NONE', #295, 3.050000000000000711 ) ;
#126 = AXIS2_PLACEMENT_3D ( 'NONE', #315, #147, #121 ) ;
#127 = CARTESIAN_POINT ( 'NONE',  ( 0.0000000000000000000, 6.500000000000000888, -3.100000000000000089 ) ) ;
#128 = VERTEX_POINT ( 'NONE', #23 ) ;
#129 = DIRECTION ( 'NONE',  ( 0.0000000000000000000, 0.0000000000000000000, 1.000000000000000000 ) ) ;
#130 = CLOSED_SHELL ( 'NONE', ( #316, #29, #69, #71, #201, #262, #175, #3, #228, #105, #246 ) ) ;
#131 = AXIS2_PLACEMENT_3D ( 'NONE', #177, #152, #78 ) ;
#132 = DIRECTION ( 'NONE',  ( 0.0000000000000000000, 0.0000000000000000000, 1.000000000000000000 ) ) ;
#133 = CARTESIAN_POINT ( 'NONE',  ( 0.0000000000000000000, 0.0000000000000000000, 0.0000000000000000000 ) ) ;
#134 = SURFACE_STYLE_FILL_AREA ( #245 ) ;
#135 = AXIS2_PLACEMENT_3D ( 'NONE', #12, #81, #106 ) ;
#136 = VECTOR ( 'NONE', #176, 1000.000000000000114 ) ;
#137 = EDGE_LOOP ( 'NONE', ( #185, #241, #62, #36 ) ) ;
#138 = EDGE_CURVE ( 'NONE', #128, #261, #257, .T. ) ;
#139 = EDGE_LOOP ( 'NONE', ( #298, #267, #120, #68 ) ) ;
#140 = EDGE_CURVE ( 'NONE', #261, #128, #281, .T. ) ;
#141 = CIRCLE ( 'NONE', #280, 3.100000000000000089 ) ;
#142 = VERTEX_POINT ( 'NONE', #46 ) ;
#143 = DIRECTION ( 'NONE',  ( 0.0000000000000000000, 0.0000000000000000000, -1.000000000000000000 ) ) ;
#144 = PRODUCT_RELATED_PRODUCT_CATEGORY ( 'part', '', ( #237 ) ) ;
#145 = DIRECTION ( 'NONE',  ( 0.0000000000000000000, 0.0000000000000000000, 1.000000000000000000 ) ) ;
#146 = DIRECTION ( 'NONE',  ( -0.0000000000000000000, -1.000000000000000000, -0.0000000000000000000 ) ) ;
#147 = DIRECTION ( 'NONE',  ( 0.0000000000000000000, -1.000000000000000000, 0.0000000000000000000 ) ) ;
#148 = PLANE ( 'NONE',  #131 ) ;
#149 = DIRECTION ( 'NONE',  ( 0.0000000000000000000, 0.0000000000000000000, 1.000000000000000000 ) ) ;
#150 = CIRCLE ( 'NONE', #126, 3.500000000000000000 ) ;
#151 = ORIENTED_EDGE ( 'NONE', *, *, #103, .F. ) ;
#152 = DIRECTION ( 'NONE',  ( 0.0000000000000000000, 1.000000000000000000, 0.0000000000000000000 ) ) ;
#153 = EDGE_CURVE ( 'NONE', #87, #261, #86, .T. ) ;
#154 = CARTESIAN_POINT ( 'NONE',  ( 0.0000000000000000000, 6.500000000000000888, -3.500000000000000000 ) ) ;
#155 = CARTESIAN_POINT ( 'NONE',  ( 0.0000000000000000000, 0.0000000000000000000, 0.0000000000000000000 ) ) ;
#156 = PRESENTATION_STYLE_ASSIGNMENT (( #160 ) ) ;
#157 = ORIENTED_EDGE ( 'NONE', *, *, #138, .F. ) ;
#158 = DIRECTION ( 'NONE',  ( 0.0000000000000000000, 0.0000000000000000000, 1.000000000000000000 ) ) ;
#159 = APPLICATION_CONTEXT ( 'automotive_design' ) ;
#160 = SURFACE_STYLE_USAGE ( .BOTH. , #7 ) ;
#161 = SURFACE_STYLE_FILL_AREA ( #79 ) ;
#162 = EDGE_CURVE ( 'NONE', #313, #261, #292, .T. ) ;
#163 = VERTEX_POINT ( 'NONE', #35 ) ;
#164 = ORIENTED_EDGE ( 'NONE', *, *, #183, .F. ) ;
#165 = ORIENTED_EDGE ( 'NONE', *, *, #54, .T. ) ;
#166 = EDGE_LOOP ( 'NONE', ( #269, #9, #210, #157 ) ) ;
#167 = DIRECTION ( 'NONE',  ( 0.0000000000000000000, 0.0000000000000000000, 1.000000000000000000 ) ) ;
#168 = AXIS2_PLACEMENT_3D ( 'NONE', #122, #287, #259 ) ;
#169 = DIRECTION ( 'NONE',  ( 0.0000000000000000000, 0.0000000000000000000, 1.000000000000000000 ) ) ;
#170 = VECTOR ( 'NONE', #53, 1000.000000000000000 ) ;
#171 = DIRECTION ( 'NONE',  ( -0.0000000000000000000, -1.000000000000000000, -0.0000000000000000000 ) ) ;
#172 =( GEOMETRIC_REPRESENTATION_CONTEXT ( 3 ) GLOBAL_UNCERTAINTY_ASSIGNED_CONTEXT ( ( #104 ) ) GLOBAL_UNIT_ASSIGNED_CONTEXT ( ( #304, #250, #37 ) ) REPRESENTATION_CONTEXT ( 'NONE', 'WORKASPACE' ) );
#173 =( NAMED_UNIT ( * ) PLANE_ANGLE_UNIT ( ) SI_UNIT ( $, .RADIAN. ) );
#174 = LINE ( 'NONE', #279, #253 ) ;
#175 = ADVANCED_FACE ( 'NONE', ( #198 ), #119, .T. ) ;
#176 = DIRECTION ( 'NONE',  ( 0.0000000000000000000, 0.7071067811865460184, 0.7071067811865490160 ) ) ;
#177 = CARTESIAN_POINT ( 'NONE',  ( 0.0000000000000000000, 0.0000000000000000000, 0.0000000000000000000 ) ) ;
#178 = CARTESIAN_POINT ( 'NONE',  ( 0.0000000000000000000, 1.500000000000000000, -3.050000000000000711 ) ) ;
#179 = CYLINDRICAL_SURFACE ( 'NONE', #168, 3.500000000000000000 ) ;
#180 = EDGE_LOOP ( 'NONE', ( #112, #57, #64, #48 ) ) ;
#181 = UNCERTAINTY_MEASURE_WITH_UNIT (LENGTH_MEASURE( 1.000000000000000082E-05 ), #270, 'distance_accuracy_value', 'NONE');
#182 = CARTESIAN_POINT ( 'NONE',  ( 0.0000000000000000000, 1.500000000000000000, 0.0000000000000000000 ) ) ;
#183 = EDGE_CURVE ( 'NONE', #142, #17, #318, .T. ) ;
#184 = DIRECTION ( 'NONE',  ( 0.0000000000000000000, -1.000000000000000000, 0.0000000000000000000 ) ) ;
#185 = ORIENTED_EDGE ( 'NONE', *, *, #314, .F. ) ;
#186 = AXIS2_PLACEMENT_3D ( 'NONE', #312, #239, #169 ) ;
#187 = FACE_BOUND ( 'NONE', #192, .T. ) ;
#188 = EDGE_LOOP ( 'NONE', ( #151, #248, #42, #44 ) ) ;
#189 = AXIS2_PLACEMENT_3D ( 'NONE', #55, #74, #320 ) ;
#190 = VECTOR ( 'NONE', #34, 1000.000000000000114 ) ;
#191 = CARTESIAN_POINT ( 'NONE',  ( 0.0000000000000000000, 0.0000000000000000000, 0.0000000000000000000 ) ) ;
#192 = EDGE_LOOP ( 'NONE', ( #59, #265 ) ) ;
#193 = LINE ( 'NONE', #127, #190 ) ;
#194 = AXIS2_PLACEMENT_3D ( 'NONE', #91, #88, #167 ) ;
#195 = CARTESIAN_POINT ( 'NONE',  ( 0.0000000000000000000, 6.500000000000000888, 0.0000000000000000000 ) ) ;
#196 = DIRECTION ( 'NONE',  ( -0.0000000000000000000, -1.000000000000000000, -0.0000000000000000000 ) ) ;
#197 = SURFACE_STYLE_USAGE ( .BOTH. , #244 ) ;
#198 = FACE_OUTER_BOUND ( 'NONE', #82, .T. ) ;
#199 = CARTESIAN_POINT ( 'NONE',  ( 0.0000000000000000000, 0.3999999999999997446, 0.0000000000000000000 ) ) ;
#200 = ORIENTED_EDGE ( 'NONE', *, *, #249, .F. ) ;
#201 = ADVANCED_FACE ( 'NONE', ( #115 ), #2, .T. ) ;
#202 = AXIS2_PLACEMENT_3D ( 'NONE', #49, #226, #242 ) ;
#203 = DIRECTION ( 'NONE',  ( 0.0000000000000000000, -1.000000000000000000, 0.0000000000000000000 ) ) ;
#204 = DIRECTION ( 'NONE',  ( 1.000000000000000000, 0.0000000000000000000, 0.0000000000000000000 ) ) ;
#205 = DIRECTION ( 'NONE',  ( 0.0000000000000000000, 1.000000000000000000, 0.0000000000000000000 ) ) ;
#206 = CIRCLE ( 'NONE', #61, 2.649999999999999023 ) ;
#207 = ORIENTED_EDGE ( 'NONE', *, *, #309, .T. ) ;
#208 = DIRECTION ( 'NONE',  ( 0.0000000000000000000, 0.0000000000000000000, -1.000000000000000000 ) ) ;
#209 = EDGE_CURVE ( 'NONE', #142, #107, #47, .T. ) ;
#210 = ORIENTED_EDGE ( 'NONE', *, *, #153, .T. ) ;
#211 = ORIENTED_EDGE ( 'NONE', *, *, #98, .T. ) ;
#212 = DIRECTION ( 'NONE',  ( 0.0000000000000000000, 1.000000000000000000, 0.0000000000000000000 ) ) ;
#213 = ORIENTED_EDGE ( 'NONE', *, *, #314, .T. ) ;
#214 = EDGE_LOOP ( 'NONE', ( #52, #96 ) ) ;
#215 = DIRECTION ( 'NONE',  ( 0.0000000000000000000, 1.000000000000000000, 0.0000000000000000000 ) ) ;
#216 = AXIS2_PLACEMENT_3D ( 'NONE', #199, #291, #129 ) ;
#217 = CARTESIAN_POINT ( 'NONE',  ( 0.0000000000000000000, 1.500000000000000000, -3.500000000000000000 ) ) ;
#218 = DIRECTION ( 'NONE',  ( 0.0000000000000000000, 0.0000000000000000000, 1.000000000000000000 ) ) ;
#219 = DIRECTION ( 'NONE',  ( 0.0000000000000000000, 1.000000000000000000, 0.0000000000000000000 ) ) ;
#220 = COLOUR_RGB ( '',1.000000000000000000, 1.000000000000000000, 1.000000000000000000 ) ;
#221 = CARTESIAN_POINT ( 'NONE',  ( 4.286263797015736595E-16, 1.500000000000000000, 3.500000000000000000 ) ) ;
#222 = CIRCLE ( 'NONE', #11, 2.649999999999999023 ) ;
#223 = ORIENTED_EDGE ( 'NONE', *, *, #290, .F. ) ;
#224 = EDGE_CURVE ( 'NONE', #232, #107, #311, .T. ) ;
#225 = CARTESIAN_POINT ( 'NONE',  ( 0.0000000000000000000, 1.500000000000000000, 0.0000000000000000000 ) ) ;
#226 = DIRECTION ( 'NONE',  ( -0.0000000000000000000, 1.000000000000000000, -0.0000000000000000000 ) ) ;
#227 = ADVANCED_BREP_SHAPE_REPRESENTATION ( '11890~0', ( #233, #276 ), #116 ) ;
#228 = ADVANCED_FACE ( 'NONE', ( #187, #306 ), #99, .F. ) ;
#229 = DIRECTION ( 'NONE',  ( 0.0000000000000000000, 0.0000000000000000000, 1.000000000000000000 ) ) ;
#230 = APPLICATION_CONTEXT ( 'automotive_design' ) ;
#231 = ORIENTED_EDGE ( 'NONE', *, *, #27, .F. ) ;
#232 = VERTEX_POINT ( 'NONE', #221 ) ;
#233 = MANIFOLD_SOLID_BREP ( 'Fase1', #130 ) ;
#234 = EDGE_LOOP ( 'NONE', ( #223, #275, #164, #200 ) ) ;
#235 = VECTOR ( 'NONE', #85, 1000.000000000000000 ) ;
#236 = FACE_OUTER_BOUND ( 'NONE', #137, .T. ) ;
#237 = PRODUCT ( '11890~0', '11890~0', '', ( #302 ) ) ;
#238 = VECTOR ( 'NONE', #94, 1000.000000000000114 ) ;
#239 = DIRECTION ( 'NONE',  ( -0.0000000000000000000, 1.000000000000000000, -0.0000000000000000000 ) ) ;
#240 = AXIS2_PLACEMENT_3D ( 'NONE', #72, #289, #102 ) ;
#241 = ORIENTED_EDGE ( 'NONE', *, *, #83, .T. ) ;
#242 = DIRECTION ( 'NONE',  ( 0.0000000000000000000, 0.0000000000000000000, 1.000000000000000000 ) ) ;
#243 = CARTESIAN_POINT ( 'NONE',  ( 0.0000000000000000000, 0.3999999999999997446, 3.050000000000000711 ) ) ;
#244 = SURFACE_SIDE_STYLE ('',( #134 ) ) ;
#245 = FILL_AREA_STYLE ('',( #319 ) ) ;
#246 = ADVANCED_FACE ( 'NONE', ( #254 ), #16, .T. ) ;
#247 = DIRECTION ( 'NONE',  ( 0.0000000000000000000, 0.0000000000000000000, -1.000000000000000000 ) ) ;
#248 = ORIENTED_EDGE ( 'NONE', *, *, #309, .F. ) ;
#249 = EDGE_CURVE ( 'NONE', #278, #142, #193, .T. ) ;
#250 =( NAMED_UNIT ( * ) PLANE_ANGLE_UNIT ( ) SI_UNIT ( $, .RADIAN. ) );
#251 = CARTESIAN_POINT ( 'NONE',  ( 0.0000000000000000000, 6.500000000000000888, 0.0000000000000000000 ) ) ;
#252 = PRESENTATION_STYLE_ASSIGNMENT (( #197 ) ) ;
#253 = VECTOR ( 'NONE', #43, 1000.000000000000000 ) ;
#254 = FACE_OUTER_BOUND ( 'NONE', #188, .T. ) ;
#255 = CARTESIAN_POINT ( 'NONE',  ( 0.0000000000000000000, 6.500000000000000888, 0.0000000000000000000 ) ) ;
#256 = MECHANICAL_DESIGN_GEOMETRIC_PRESENTATION_REPRESENTATION (  '', ( #24 ), #307 ) ;
#257 = CIRCLE ( 'NONE', #202, 3.050000000000000711 ) ;
#258 = ORIENTED_EDGE ( 'NONE', *, *, #264, .T. ) ;
#259 = DIRECTION ( 'NONE',  ( 0.0000000000000000000, 0.0000000000000000000, -1.000000000000000000 ) ) ;
#260 = CONICAL_SURFACE ( 'NONE', #310, 3.100000000000000089, 0.7853981633974482790 ) ;
#261 = VERTEX_POINT ( 'NONE', #31 ) ;
#262 = ADVANCED_FACE ( 'NONE', ( #67 ), #148, .F. ) ;
#263 = DIRECTION ( 'NONE',  ( 0.0000000000000000000, 0.0000000000000000000, -1.000000000000000000 ) ) ;
#264 = EDGE_CURVE ( 'NONE', #32, #128, #39, .T. ) ;
#265 = ORIENTED_EDGE ( 'NONE', *, *, #305, .T. ) ;
#266 = CARTESIAN_POINT ( 'NONE',  ( 0.0000000000000000000, 6.500000000000000888, -3.100000000000000089 ) ) ;
#267 = ORIENTED_EDGE ( 'NONE', *, *, #162, .T. ) ;
#268 = DIRECTION ( 'NONE',  ( -0.0000000000000000000, -1.000000000000000000, -0.0000000000000000000 ) ) ;
#269 = ORIENTED_EDGE ( 'NONE', *, *, #83, .F. ) ;
#270 =( LENGTH_UNIT ( ) NAMED_UNIT ( * ) SI_UNIT ( .MILLI., .METRE. ) );
#271 = PRODUCT_DEFINITION_CONTEXT ( 'detailed design', #159, 'design' ) ;
#272 = CARTESIAN_POINT ( 'NONE',  ( 0.0000000000000000000, 6.500000000000000888, 0.0000000000000000000 ) ) ;
#273 = DIRECTION ( 'NONE',  ( 0.0000000000000000000, 1.000000000000000000, 0.0000000000000000000 ) ) ;
#274 = CONICAL_SURFACE ( 'NONE', #186, 3.050000000000000711, 0.7853981633974503884 ) ;
#275 = ORIENTED_EDGE ( 'NONE', *, *, #103, .T. ) ;
#276 = AXIS2_PLACEMENT_3D ( 'NONE', #133, #158, #204 ) ;
#277 = CIRCLE ( 'NONE', #294, 3.100000000000000089 ) ;
#278 = VERTEX_POINT ( 'NONE', #266 ) ;
#279 = CARTESIAN_POINT ( 'NONE',  ( 4.286263797015736595E-16, 6.500000000000000888, 3.500000000000000000 ) ) ;
#280 = AXIS2_PLACEMENT_3D ( 'NONE', #297, #273, #38 ) ;
#281 = CIRCLE ( 'NONE', #216, 3.050000000000000711 ) ;
#282 = ORIENTED_EDGE ( 'NONE', *, *, #290, .T. ) ;
#283 = EDGE_CURVE ( 'NONE', #107, #232, #73, .T. ) ;
#284 = CARTESIAN_POINT ( 'NONE',  ( 3.735172737399428132E-16, 1.500000000000000000, 3.050000000000000711 ) ) ;
#285 = AXIS2_PLACEMENT_3D ( 'NONE', #1, #203, #149 ) ;
#286 = LINE ( 'NONE', #22, #238 ) ;
#287 = DIRECTION ( 'NONE',  ( -0.0000000000000000000, -1.000000000000000000, -0.0000000000000000000 ) ) ;
#288 = DIRECTION ( 'NONE',  ( -0.0000000000000000000, -1.000000000000000000, -0.0000000000000000000 ) ) ;
#289 = DIRECTION ( 'NONE',  ( 0.0000000000000000000, 1.000000000000000000, 0.0000000000000000000 ) ) ;
#290 = EDGE_CURVE ( 'NONE', #163, #278, #277, .T. ) ;
#291 = DIRECTION ( 'NONE',  ( -0.0000000000000000000, 1.000000000000000000, -0.0000000000000000000 ) ) ;
#292 = LINE ( 'NONE', #284, #20 ) ;
#293 = DIRECTION ( 'NONE',  ( 0.0000000000000000000, 0.0000000000000000000, 1.000000000000000000 ) ) ;
#294 = AXIS2_PLACEMENT_3D ( 'NONE', #272, #205, #229 ) ;
#295 = AXIS2_PLACEMENT_3D ( 'NONE', #50, #146, #143 ) ;
#296 = COLOUR_RGB ( '',1.000000000000000000, 1.000000000000000000, 1.000000000000000000 ) ;
#297 = CARTESIAN_POINT ( 'NONE',  ( 0.0000000000000000000, 6.500000000000000888, 0.0000000000000000000 ) ) ;
#298 = ORIENTED_EDGE ( 'NONE', *, *, #305, .F. ) ;
#299 =( NAMED_UNIT ( * ) SI_UNIT ( $, .STERADIAN. ) SOLID_ANGLE_UNIT ( ) );
#300 = UNCERTAINTY_MEASURE_WITH_UNIT (LENGTH_MEASURE( 1.000000000000000082E-05 ), #101, 'distance_accuracy_value', 'NONE');
#301 = FILL_AREA_STYLE_COLOUR ( '', #220 ) ;
#302 = PRODUCT_CONTEXT ( 'NONE', #230, 'mechanical' ) ;
#303 = EDGE_LOOP ( 'NONE', ( #118, #76, #258, #4 ) ) ;
#304 =( LENGTH_UNIT ( ) NAMED_UNIT ( * ) SI_UNIT ( .MILLI., .METRE. ) );
#305 = EDGE_CURVE ( 'NONE', #313, #32, #13, .T. ) ;
#306 = FACE_OUTER_BOUND ( 'NONE', #214, .T. ) ;
#307 =( GEOMETRIC_REPRESENTATION_CONTEXT ( 3 ) GLOBAL_UNCERTAINTY_ASSIGNED_CONTEXT ( ( #300 ) ) GLOBAL_UNIT_ASSIGNED_CONTEXT ( ( #101, #173, #5 ) ) REPRESENTATION_CONTEXT ( 'NONE', 'WORKASPACE' ) );
#308 = FACE_OUTER_BOUND ( 'NONE', #234, .T. ) ;
#309 = EDGE_CURVE ( 'NONE', #278, #163, #141, .T. ) ;
#310 = AXIS2_PLACEMENT_3D ( 'NONE', #251, #184, #208 ) ;
#311 = CIRCLE ( 'NONE', #114, 3.500000000000000000 ) ;
#312 = CARTESIAN_POINT ( 'NONE',  ( 0.0000000000000000000, 0.3999999999999997446, 0.0000000000000000000 ) ) ;
#313 = VERTEX_POINT ( 'NONE', #8 ) ;
#314 = EDGE_CURVE ( 'NONE', #14, #87, #206, .T. ) ;
#315 = CARTESIAN_POINT ( 'NONE',  ( 0.0000000000000000000, 6.100000000000000533, 0.0000000000000000000 ) ) ;
#316 = ADVANCED_FACE ( 'NONE', ( #308 ), #260, .T. ) ;
#317 = PRODUCT_DEFINITION_SHAPE ( 'NONE', 'NONE',  #77 ) ;
#318 = CIRCLE ( 'NONE', #285, 3.500000000000000000 ) ;
#319 = FILL_AREA_STYLE_COLOUR ( '', #296 ) ;
#320 = DIRECTION ( 'NONE',  ( 0.0000000000000000000, 0.0000000000000000000, -1.000000000000000000 ) ) ;
ENDSEC;
END-ISO-10303-21;
