ISO-10303-21;
HEADER;
FILE_DESCRIPTION (( 'STEP AP214' ),
    '1' );
FILE_NAME ('INGUN_115944.STEP',
    '2024-03-11T08:45:37',
    ( '' ),
    ( '' ),
    'SwSTEP 2.0',
    'SolidWorks 2021',
    '' );
FILE_SCHEMA (( 'AUTOMOTIVE_DESIGN' ));
ENDSEC;

DATA;
#1 = CARTESIAN_POINT ( 'NONE',  ( 6.551860375438340524E-14, -0.7500000000000013323, 207.5000000000000284 ) ) ;
#2 = EDGE_LOOP ( 'NONE', ( #116, #230, #198, #257 ) ) ;
#3 = VERTEX_POINT ( 'NONE', #152 ) ;
#4 =( LENGTH_UNIT ( ) NAMED_UNIT ( * ) SI_UNIT ( .MILLI., .METRE. ) );
#5 = EDGE_LOOP ( 'NONE', ( #33, #202, #174, #311 ) ) ;
#6 = DIRECTION ( 'NONE',  ( 1.000000000000000000, 0.000000000000000000, 0.000000000000000000 ) ) ;
#7 = FILL_AREA_STYLE_COLOUR ( '', #111 ) ;
#8 = LINE ( 'NONE', #42, #168 ) ;
#9 = DIRECTION ( 'NONE',  ( 0.000000000000000000, 0.000000000000000000, 1.000000000000000000 ) ) ;
#10 = AXIS2_PLACEMENT_3D ( 'NONE', #348, #92, #181 ) ;
#11 = ORIENTED_EDGE ( 'NONE', *, *, #224, .F. ) ;
#12 = EDGE_CURVE ( 'NONE', #315, #113, #246, .T. ) ;
#13 = ORIENTED_EDGE ( 'NONE', *, *, #258, .F. ) ;
#14 = DIRECTION ( 'NONE',  ( -0.000000000000000000, 1.000000000000000000, -0.000000000000000000 ) ) ;
#15 = ADVANCED_FACE ( 'NONE', ( #124 ), #270, .F. ) ;
#16 = DIRECTION ( 'NONE',  ( 0.000000000000000000, 0.000000000000000000, -1.000000000000000000 ) ) ;
#17 = AXIS2_PLACEMENT_3D ( 'NONE', #91, #208, #296 ) ;
#18 = PLANE ( 'NONE',  #191 ) ;
#19 = DIRECTION ( 'NONE',  ( -0.000000000000000000, -1.000000000000000000, -0.000000000000000000 ) ) ;
#20 = CARTESIAN_POINT ( 'NONE',  ( 6.551860375438340524E-14, 0.7500000000000000000, 207.5000000000000284 ) ) ;
#21 = EDGE_CURVE ( 'NONE', #284, #171, #272, .T. ) ;
#22 = VECTOR ( 'NONE', #159, 1000.000000000000000 ) ;
#23 = AXIS2_PLACEMENT_3D ( 'NONE', #216, #242, #318 ) ;
#24 = LINE ( 'NONE', #333, #225 ) ;
#25 = ORIENTED_EDGE ( 'NONE', *, *, #93, .T. ) ;
#26 = EDGE_CURVE ( 'NONE', #344, #3, #149, .T. ) ;
#27 = CARTESIAN_POINT ( 'NONE',  ( 269.9999999999999432, 0.7500000000000000000, -215.0000000000000000 ) ) ;
#28 = EDGE_LOOP ( 'NONE', ( #325, #290 ) ) ;
#29 = PRESENTATION_LAYER_ASSIGNMENT (  '', '', ( #60 ) ) ;
#30 = CARTESIAN_POINT ( 'NONE',  ( 269.9999999999999432, 0.7500000000000000000, 215.0000000000000000 ) ) ;
#31 = EDGE_LOOP ( 'NONE', ( #13, #35, #289, #263 ) ) ;
#32 = CARTESIAN_POINT ( 'NONE',  ( 6.551860375438340524E-14, -0.7500000000000013323, -205.5000000000000284 ) ) ;
#33 = ORIENTED_EDGE ( 'NONE', *, *, #88, .F. ) ;
#34 = FACE_OUTER_BOUND ( 'NONE', #261, .T. ) ;
#35 = ORIENTED_EDGE ( 'NONE', *, *, #345, .F. ) ;
#36 = ADVANCED_FACE ( 'NONE', ( #243 ), #241, .F. ) ;
#37 = VECTOR ( 'NONE', #217, 1000.000000000000000 ) ;
#38 = PRESENTATION_LAYER_ASSIGNMENT (  '', '', ( #129 ) ) ;
#39 = LINE ( 'NONE', #150, #68 ) ;
#40 = CARTESIAN_POINT ( 'NONE',  ( -270.0000000000000568, 0.7500000000000000000, 215.0000000000000000 ) ) ;
#41 = ADVANCED_FACE ( 'NONE', ( #97 ), #183, .F. ) ;
#42 = CARTESIAN_POINT ( 'NONE',  ( 269.9999999999999432, -0.7500000000000000000, 215.0000000000000000 ) ) ;
#43 = CARTESIAN_POINT ( 'NONE',  ( 6.576353311421287553E-14, 0.7500000000000000000, -209.5000000000000284 ) ) ;
#44 = VECTOR ( 'NONE', #19, 1000.000000000000000 ) ;
#45 = ORIENTED_EDGE ( 'NONE', *, *, #50, .F. ) ;
#46 = DIRECTION ( 'NONE',  ( 0.000000000000000000, -0.000000000000000000, -1.000000000000000000 ) ) ;
#47 =( NAMED_UNIT ( * ) PLANE_ANGLE_UNIT ( ) SI_UNIT ( $, .RADIAN. ) );
#48 = AXIS2_PLACEMENT_3D ( 'NONE', #139, #144, #199 ) ;
#49 = ORIENTED_EDGE ( 'NONE', *, *, #70, .F. ) ;
#50 = EDGE_CURVE ( 'NONE', #113, #315, #312, .T. ) ;
#51 = DIRECTION ( 'NONE',  ( -0.000000000000000000, 1.000000000000000000, -0.000000000000000000 ) ) ;
#52 = CARTESIAN_POINT ( 'NONE',  ( -270.0000000000000568, -0.7500000000000000000, -215.0000000000000000 ) ) ;
#53 = DIRECTION ( 'NONE',  ( -0.000000000000000000, -1.000000000000000000, -0.000000000000000000 ) ) ;
#54 = EDGE_LOOP ( 'NONE', ( #126, #85, #228, #347 ) ) ;
#55 = CARTESIAN_POINT ( 'NONE',  ( 269.9999999999999432, -0.7500000000000000000, -215.0000000000000000 ) ) ;
#56 = VERTEX_POINT ( 'NONE', #294 ) ;
#57 = UNCERTAINTY_MEASURE_WITH_UNIT (LENGTH_MEASURE( 1.000000000000000082E-05 ), #4, 'distance_accuracy_value', 'NONE');
#58 =( LENGTH_UNIT ( ) NAMED_UNIT ( * ) SI_UNIT ( .MILLI., .METRE. ) );
#59 = VERTEX_POINT ( 'NONE', #268 ) ;
#60 = STYLED_ITEM ( 'NONE', ( #336 ), #300 ) ;
#61 =( GEOMETRIC_REPRESENTATION_CONTEXT ( 3 ) GLOBAL_UNCERTAINTY_ASSIGNED_CONTEXT ( ( #57 ) ) GLOBAL_UNIT_ASSIGNED_CONTEXT ( ( #4, #148, #120 ) ) REPRESENTATION_CONTEXT ( 'NONE', 'WORKASPACE' ) );
#62 = CARTESIAN_POINT ( 'NONE',  ( 269.9999999999999432, -0.7500000000000000000, -215.0000000000000000 ) ) ;
#63 = ORIENTED_EDGE ( 'NONE', *, *, #119, .T. ) ;
#64 = FACE_OUTER_BOUND ( 'NONE', #2, .T. ) ;
#65 = VERTEX_POINT ( 'NONE', #274 ) ;
#66 = APPLICATION_PROTOCOL_DEFINITION ( 'draft international standard', 'automotive_design', 1998, #143 ) ;
#67 = CARTESIAN_POINT ( 'NONE',  ( 6.551860375438340524E-14, -0.7500000000000013323, -207.5000000000000284 ) ) ;
#68 = VECTOR ( 'NONE', #6, 1000.000000000000000 ) ;
#69 = DIRECTION ( 'NONE',  ( 1.000000000000000000, 0.000000000000000000, 0.000000000000000000 ) ) ;
#70 = EDGE_CURVE ( 'NONE', #3, #83, #237, .T. ) ;
#71 = CARTESIAN_POINT ( 'NONE',  ( 6.551860375438340524E-14, 0.7500000000000000000, 207.5000000000000284 ) ) ;
#72 = DIRECTION ( 'NONE',  ( 0.000000000000000000, 0.000000000000000000, 1.000000000000000000 ) ) ;
#73 = DIRECTION ( 'NONE',  ( -0.000000000000000000, 1.000000000000000000, -0.000000000000000000 ) ) ;
#74 = CYLINDRICAL_SURFACE ( 'NONE', #175, 2.000000000000001776 ) ;
#75 = DIRECTION ( 'NONE',  ( 0.000000000000000000, 0.000000000000000000, 1.000000000000000000 ) ) ;
#76 = FILL_AREA_STYLE ('',( #331 ) ) ;
#77 = EDGE_LOOP ( 'NONE', ( #200, #342, #340, #275 ) ) ;
#78 = CARTESIAN_POINT ( 'NONE',  ( 269.9999999999999432, 0.7500000000000000000, 215.0000000000000000 ) ) ;
#79 = DIRECTION ( 'NONE',  ( 0.000000000000000000, -1.000000000000000000, 0.000000000000000000 ) ) ;
#80 = EDGE_CURVE ( 'NONE', #363, #65, #186, .T. ) ;
#81 = AXIS2_PLACEMENT_3D ( 'NONE', #178, #107, #222 ) ;
#82 = LINE ( 'NONE', #316, #358 ) ;
#83 = VERTEX_POINT ( 'NONE', #40 ) ;
#84 = DIRECTION ( 'NONE',  ( 0.000000000000000000, 0.000000000000000000, 1.000000000000000000 ) ) ;
#85 = ORIENTED_EDGE ( 'NONE', *, *, #258, .T. ) ;
#86 =( NAMED_UNIT ( * ) PLANE_ANGLE_UNIT ( ) SI_UNIT ( $, .RADIAN. ) );
#87 = ORIENTED_EDGE ( 'NONE', *, *, #320, .T. ) ;
#88 = EDGE_CURVE ( 'NONE', #113, #109, #297, .T. ) ;
#89 = DIRECTION ( 'NONE',  ( 0.000000000000000000, 0.000000000000000000, 1.000000000000000000 ) ) ;
#90 = ORIENTED_EDGE ( 'NONE', *, *, #234, .F. ) ;
#91 = CARTESIAN_POINT ( 'NONE',  ( 6.551860375438340524E-14, 0.7499999999999998890, -207.5000000000000284 ) ) ;
#92 = DIRECTION ( 'NONE',  ( -0.000000000000000000, 1.000000000000000000, -0.000000000000000000 ) ) ;
#93 = EDGE_CURVE ( 'NONE', #109, #180, #162, .T. ) ;
#94 = STYLED_ITEM ( 'NONE', ( #209 ), #185 ) ;
#95 = DIRECTION ( 'NONE',  ( -0.000000000000000000, 1.000000000000000000, -0.000000000000000000 ) ) ;
#96 = DIRECTION ( 'NONE',  ( 0.000000000000000000, 0.000000000000000000, 1.000000000000000000 ) ) ;
#97 = FACE_OUTER_BOUND ( 'NONE', #54, .T. ) ;
#98 = SURFACE_STYLE_FILL_AREA ( #76 ) ;
#99 = AXIS2_PLACEMENT_3D ( 'NONE', #349, #95, #213 ) ;
#100 = VECTOR ( 'NONE', #53, 1000.000000000000000 ) ;
#101 = DIRECTION ( 'NONE',  ( -0.000000000000000000, 1.000000000000000000, -0.000000000000000000 ) ) ;
#102 = FACE_BOUND ( 'NONE', #28, .T. ) ;
#103 = VECTOR ( 'NONE', #14, 1000.000000000000000 ) ;
#104 = CIRCLE ( 'NONE', #81, 2.000000000000001776 ) ;
#105 = ORIENTED_EDGE ( 'NONE', *, *, #80, .F. ) ;
#106 = DIRECTION ( 'NONE',  ( 0.000000000000000000, 0.000000000000000000, 1.000000000000000000 ) ) ;
#107 = DIRECTION ( 'NONE',  ( -0.000000000000000000, 1.000000000000000000, -0.000000000000000000 ) ) ;
#108 = FILL_AREA_STYLE_COLOUR ( '', #303 ) ;
#109 = VERTEX_POINT ( 'NONE', #319 ) ;
#110 = AXIS2_PLACEMENT_3D ( 'NONE', #221, #160, #16 ) ;
#111 = COLOUR_RGB ( '',0.7529411764705882248, 1.000000000000000000, 0.7529411764705882248 ) ;
#112 = SURFACE_SIDE_STYLE ('',( #307 ) ) ;
#113 = VERTEX_POINT ( 'NONE', #155 ) ;
#114 = ORIENTED_EDGE ( 'NONE', *, *, #239, .T. ) ;
#115 = LINE ( 'NONE', #231, #100 ) ;
#116 = ORIENTED_EDGE ( 'NONE', *, *, #80, .T. ) ;
#117 = MECHANICAL_DESIGN_GEOMETRIC_PRESENTATION_REPRESENTATION (  '', ( #60 ), #205 ) ;
#118 = ORIENTED_EDGE ( 'NONE', *, *, #224, .T. ) ;
#119 = EDGE_CURVE ( 'NONE', #83, #138, #39, .T. ) ;
#120 =( NAMED_UNIT ( * ) SI_UNIT ( $, .STERADIAN. ) SOLID_ANGLE_UNIT ( ) );
#121 = DIRECTION ( 'NONE',  ( -0.000000000000000000, 1.000000000000000000, -0.000000000000000000 ) ) ;
#122 = DIRECTION ( 'NONE',  ( 0.000000000000000000, 0.000000000000000000, -1.000000000000000000 ) ) ;
#123 = CARTESIAN_POINT ( 'NONE',  ( -270.0000000000000568, 0.7500000000000000000, -215.0000000000000000 ) ) ;
#124 = FACE_OUTER_BOUND ( 'NONE', #286, .T. ) ;
#125 = EDGE_CURVE ( 'NONE', #180, #109, #147, .T. ) ;
#126 = ORIENTED_EDGE ( 'NONE', *, *, #239, .F. ) ;
#127 = AXIS2_PLACEMENT_3D ( 'NONE', #326, #321, #351 ) ;
#128 = SURFACE_STYLE_USAGE ( .BOTH. , #250 ) ;
#129 = STYLED_ITEM ( 'NONE', ( #188 ), #262 ) ;
#130 = VECTOR ( 'NONE', #203, 1000.000000000000000 ) ;
#131 = EDGE_CURVE ( 'NONE', #65, #298, #8, .T. ) ;
#132 = FACE_OUTER_BOUND ( 'NONE', #31, .T. ) ;
#133 = DIRECTION ( 'NONE',  ( -0.000000000000000000, -1.000000000000000000, -0.000000000000000000 ) ) ;
#134 = EDGE_LOOP ( 'NONE', ( #140, #309 ) ) ;
#135 = LINE ( 'NONE', #78, #233 ) ;
#136 = DIRECTION ( 'NONE',  ( -1.000000000000000000, -0.000000000000000000, -0.000000000000000000 ) ) ;
#137 = DIRECTION ( 'NONE',  ( 0.000000000000000000, -0.000000000000000000, -1.000000000000000000 ) ) ;
#138 = VERTEX_POINT ( 'NONE', #238 ) ;
#139 = CARTESIAN_POINT ( 'NONE',  ( -270.0000000000000568, 0.7500000000000000000, 215.0000000000000000 ) ) ;
#140 = ORIENTED_EDGE ( 'NONE', *, *, #277, .F. ) ;
#141 = UNCERTAINTY_MEASURE_WITH_UNIT (LENGTH_MEASURE( 1.000000000000000082E-05 ), #170, 'distance_accuracy_value', 'NONE');
#142 = ORIENTED_EDGE ( 'NONE', *, *, #345, .T. ) ;
#143 = APPLICATION_CONTEXT ( 'automotive_design' ) ;
#144 = DIRECTION ( 'NONE',  ( 0.000000000000000000, 0.000000000000000000, -1.000000000000000000 ) ) ;
#145 = ORIENTED_EDGE ( 'NONE', *, *, #214, .T. ) ;
#146 = ORIENTED_EDGE ( 'NONE', *, *, #26, .T. ) ;
#147 = CIRCLE ( 'NONE', #10, 2.000000000000001776 ) ;
#148 =( NAMED_UNIT ( * ) PLANE_ANGLE_UNIT ( ) SI_UNIT ( $, .RADIAN. ) );
#149 = LINE ( 'NONE', #123, #22 ) ;
#150 = CARTESIAN_POINT ( 'NONE',  ( -270.0000000000000568, 0.7500000000000000000, 215.0000000000000000 ) ) ;
#151 = SURFACE_STYLE_USAGE ( .BOTH. , #346 ) ;
#152 = CARTESIAN_POINT ( 'NONE',  ( -270.0000000000000568, 0.7500000000000000000, -215.0000000000000000 ) ) ;
#153 = AXIS2_PLACEMENT_3D ( 'NONE', #67, #245, #72 ) ;
#154 = CIRCLE ( 'NONE', #273, 2.000000000000001776 ) ;
#155 = CARTESIAN_POINT ( 'NONE',  ( 6.576353311421287553E-14, -0.7500000000000013323, -209.5000000000000284 ) ) ;
#156 = EDGE_CURVE ( 'NONE', #56, #171, #240, .T. ) ;
#157 = PRODUCT_DEFINITION_SHAPE ( 'NONE', 'NONE',  #271 ) ;
#158 = EDGE_LOOP ( 'NONE', ( #118, #146, #226, #63 ) ) ;
#159 = DIRECTION ( 'NONE',  ( -1.000000000000000000, -0.000000000000000000, -0.000000000000000000 ) ) ;
#160 = DIRECTION ( 'NONE',  ( 1.000000000000000000, -0.000000000000000000, 0.000000000000000000 ) ) ;
#161 = EDGE_CURVE ( 'NONE', #315, #180, #278, .T. ) ;
#162 = CIRCLE ( 'NONE', #17, 2.000000000000001776 ) ;
#163 = CARTESIAN_POINT ( 'NONE',  ( 6.551860375438340524E-14, -0.7500000000000013323, 207.5000000000000284 ) ) ;
#164 = FACE_OUTER_BOUND ( 'NONE', #5, .T. ) ;
#165 = DIRECTION ( 'NONE',  ( -0.000000000000000000, 1.000000000000000000, -0.000000000000000000 ) ) ;
#166 = LINE ( 'NONE', #52, #306 ) ;
#167 = CLOSED_SHELL ( 'NONE', ( #15, #41, #327, #36, #236, #279, #194, #300, #169, #269 ) ) ;
#168 = VECTOR ( 'NONE', #122, 1000.000000000000000 ) ;
#169 = ADVANCED_FACE ( 'NONE', ( #132 ), #74, .F. ) ;
#170 =( LENGTH_UNIT ( ) NAMED_UNIT ( * ) SI_UNIT ( .MILLI., .METRE. ) );
#171 = VERTEX_POINT ( 'NONE', #249 ) ;
#172 = DIRECTION ( 'NONE',  ( -0.000000000000000000, -0.000000000000000000, 1.000000000000000000 ) ) ;
#173 = ORIENTED_EDGE ( 'NONE', *, *, #302, .F. ) ;
#174 = ORIENTED_EDGE ( 'NONE', *, *, #161, .T. ) ;
#175 = AXIS2_PLACEMENT_3D ( 'NONE', #20, #187, #301 ) ;
#176 = FILL_AREA_STYLE ('',( #108 ) ) ;
#177 = EDGE_LOOP ( 'NONE', ( #142, #114 ) ) ;
#178 = CARTESIAN_POINT ( 'NONE',  ( 6.551860375438340524E-14, 0.7499999999999998890, 207.5000000000000284 ) ) ;
#179 = PRODUCT_CONTEXT ( 'NONE', #143, 'mechanical' ) ;
#180 = VERTEX_POINT ( 'NONE', #356 ) ;
#181 = DIRECTION ( 'NONE',  ( 0.000000000000000000, 0.000000000000000000, 1.000000000000000000 ) ) ;
#182 = CARTESIAN_POINT ( 'NONE',  ( -270.0000000000000568, 0.7500000000000000000, 215.0000000000000000 ) ) ;
#183 = CYLINDRICAL_SURFACE ( 'NONE', #354, 2.000000000000001776 ) ;
#184 = AXIS2_PLACEMENT_3D ( 'NONE', #1, #285, #84 ) ;
#185 = ADVANCED_BREP_SHAPE_REPRESENTATION ( 'INGUN_115944', ( #262, #23 ), #323 ) ;
#186 = LINE ( 'NONE', #328, #337 ) ;
#187 = DIRECTION ( 'NONE',  ( -0.000000000000000000, 1.000000000000000000, -0.000000000000000000 ) ) ;
#188 = PRESENTATION_STYLE_ASSIGNMENT (( #128 ) ) ;
#189 = PRODUCT_RELATED_PRODUCT_CATEGORY ( 'part', '', ( #244 ) ) ;
#190 = AXIS2_PLACEMENT_3D ( 'NONE', #295, #352, #210 ) ;
#191 = AXIS2_PLACEMENT_3D ( 'NONE', #281, #79, #46 ) ;
#192 =( NAMED_UNIT ( * ) SI_UNIT ( $, .STERADIAN. ) SOLID_ANGLE_UNIT ( ) );
#193 = CARTESIAN_POINT ( 'NONE',  ( 6.551860375438340524E-14, 0.7500000000000000000, -207.5000000000000284 ) ) ;
#194 = ADVANCED_FACE ( 'NONE', ( #102, #334, #353 ), #18, .F. ) ;
#195 = LINE ( 'NONE', #359, #44 ) ;
#196 = CARTESIAN_POINT ( 'NONE',  ( 269.9999999999999432, 0.7500000000000000000, -215.0000000000000000 ) ) ;
#197 = COLOUR_RGB ( '',0.7529411764705882248, 1.000000000000000000, 0.7529411764705882248 ) ;
#198 = ORIENTED_EDGE ( 'NONE', *, *, #119, .F. ) ;
#199 = DIRECTION ( 'NONE',  ( -1.000000000000000000, 0.000000000000000000, -0.000000000000000000 ) ) ;
#200 = ORIENTED_EDGE ( 'NONE', *, *, #255, .T. ) ;
#201 = UNCERTAINTY_MEASURE_WITH_UNIT (LENGTH_MEASURE( 1.000000000000000082E-05 ), #248, 'distance_accuracy_value', 'NONE');
#202 = ORIENTED_EDGE ( 'NONE', *, *, #12, .F. ) ;
#203 = DIRECTION ( 'NONE',  ( -0.000000000000000000, -1.000000000000000000, -0.000000000000000000 ) ) ;
#204 = ORIENTED_EDGE ( 'NONE', *, *, #332, .T. ) ;
#205 =( GEOMETRIC_REPRESENTATION_CONTEXT ( 3 ) GLOBAL_UNCERTAINTY_ASSIGNED_CONTEXT ( ( #141 ) ) GLOBAL_UNIT_ASSIGNED_CONTEXT ( ( #170, #360, #341 ) ) REPRESENTATION_CONTEXT ( 'NONE', 'WORKASPACE' ) );
#206 = PLANE ( 'NONE',  #48 ) ;
#207 = ORIENTED_EDGE ( 'NONE', *, *, #131, .T. ) ;
#208 = DIRECTION ( 'NONE',  ( -0.000000000000000000, 1.000000000000000000, -0.000000000000000000 ) ) ;
#209 = PRESENTATION_STYLE_ASSIGNMENT (( #151 ) ) ;
#210 = DIRECTION ( 'NONE',  ( 1.000000000000000000, 0.000000000000000000, -0.000000000000000000 ) ) ;
#211 = FILL_AREA_STYLE ('',( #7 ) ) ;
#212 = APPLICATION_CONTEXT ( 'automotive_design' ) ;
#213 = DIRECTION ( 'NONE',  ( 0.000000000000000000, 0.000000000000000000, 1.000000000000000000 ) ) ;
#214 = EDGE_CURVE ( 'NONE', #138, #65, #135, .T. ) ;
#215 = CARTESIAN_POINT ( 'NONE',  ( 6.551860375438340524E-14, -0.7500000000000013323, -207.5000000000000284 ) ) ;
#216 = CARTESIAN_POINT ( 'NONE',  ( 0.000000000000000000, 0.000000000000000000, 0.000000000000000000 ) ) ;
#217 = DIRECTION ( 'NONE',  ( -0.000000000000000000, -0.000000000000000000, 1.000000000000000000 ) ) ;
#218 = LINE ( 'NONE', #355, #267 ) ;
#219 = ORIENTED_EDGE ( 'NONE', *, *, #12, .T. ) ;
#220 = CYLINDRICAL_SURFACE ( 'NONE', #260, 2.000000000000001776 ) ;
#221 = CARTESIAN_POINT ( 'NONE',  ( -270.0000000000000568, 0.7500000000000000000, 215.0000000000000000 ) ) ;
#222 = DIRECTION ( 'NONE',  ( 0.000000000000000000, 0.000000000000000000, 1.000000000000000000 ) ) ;
#223 = PLANE ( 'NONE',  #304 ) ;
#224 = EDGE_CURVE ( 'NONE', #138, #344, #218, .T. ) ;
#225 = VECTOR ( 'NONE', #282, 1000.000000000000000 ) ;
#226 = ORIENTED_EDGE ( 'NONE', *, *, #70, .T. ) ;
#227 = FACE_BOUND ( 'NONE', #308, .T. ) ;
#228 = ORIENTED_EDGE ( 'NONE', *, *, #156, .T. ) ;
#229 = FACE_BOUND ( 'NONE', #177, .T. ) ;
#230 = ORIENTED_EDGE ( 'NONE', *, *, #214, .F. ) ;
#231 = CARTESIAN_POINT ( 'NONE',  ( -270.0000000000000568, 0.7500000000000000000, -215.0000000000000000 ) ) ;
#232 = ORIENTED_EDGE ( 'NONE', *, *, #255, .F. ) ;
#233 = VECTOR ( 'NONE', #133, 1000.000000000000000 ) ;
#234 = EDGE_CURVE ( 'NONE', #83, #363, #195, .T. ) ;
#235 = VERTEX_POINT ( 'NONE', #330 ) ;
#236 = ADVANCED_FACE ( 'NONE', ( #305 ), #280, .F. ) ;
#237 = LINE ( 'NONE', #182, #37 ) ;
#238 = CARTESIAN_POINT ( 'NONE',  ( 269.9999999999999432, 0.7500000000000000000, 215.0000000000000000 ) ) ;
#239 = EDGE_CURVE ( 'NONE', #59, #284, #154, .T. ) ;
#240 = CIRCLE ( 'NONE', #99, 2.000000000000001776 ) ;
#241 = PLANE ( 'NONE',  #190 ) ;
#242 = DIRECTION ( 'NONE',  ( 0.000000000000000000, 0.000000000000000000, 1.000000000000000000 ) ) ;
#243 = FACE_OUTER_BOUND ( 'NONE', #77, .T. ) ;
#244 = PRODUCT ( 'INGUN_115944', 'INGUN_115944', '', ( #179 ) ) ;
#245 = DIRECTION ( 'NONE',  ( -0.000000000000000000, 1.000000000000000000, -0.000000000000000000 ) ) ;
#246 = CIRCLE ( 'NONE', #266, 2.000000000000001776 ) ;
#247 = VECTOR ( 'NONE', #165, 1000.000000000000000 ) ;
#248 =( LENGTH_UNIT ( ) NAMED_UNIT ( * ) SI_UNIT ( .MILLI., .METRE. ) );
#249 = CARTESIAN_POINT ( 'NONE',  ( 6.551860375438340524E-14, 0.7499999999999998890, 209.5000000000000284 ) ) ;
#250 = SURFACE_SIDE_STYLE ('',( #98 ) ) ;
#251 = DIRECTION ( 'NONE',  ( 0.000000000000000000, 0.000000000000000000, -1.000000000000000000 ) ) ;
#252 = PRESENTATION_LAYER_ASSIGNMENT (  '', '', ( #94 ) ) ;
#253 = EDGE_LOOP ( 'NONE', ( #204, #90, #49, #87 ) ) ;
#254 = DIRECTION ( 'NONE',  ( 0.000000000000000000, -1.000000000000000000, 0.000000000000000000 ) ) ;
#255 = EDGE_CURVE ( 'NONE', #298, #235, #166, .T. ) ;
#256 = FACE_OUTER_BOUND ( 'NONE', #264, .T. ) ;
#257 = ORIENTED_EDGE ( 'NONE', *, *, #234, .T. ) ;
#258 = EDGE_CURVE ( 'NONE', #59, #56, #24, .T. ) ;
#259 = CARTESIAN_POINT ( 'NONE',  ( -270.0000000000000568, -0.7500000000000000000, 215.0000000000000000 ) ) ;
#260 = AXIS2_PLACEMENT_3D ( 'NONE', #193, #51, #75 ) ;
#261 = EDGE_LOOP ( 'NONE', ( #339, #105, #292, #232 ) ) ;
#262 = MANIFOLD_SOLID_BREP ( 'Ø4.0 (4) Durchmesser Bohrung1', #167 ) ;
#263 = ORIENTED_EDGE ( 'NONE', *, *, #277, .T. ) ;
#264 = EDGE_LOOP ( 'NONE', ( #207, #173, #11, #145 ) ) ;
#265 = ORIENTED_EDGE ( 'NONE', *, *, #50, .T. ) ;
#266 = AXIS2_PLACEMENT_3D ( 'NONE', #215, #121, #9 ) ;
#267 = VECTOR ( 'NONE', #251, 1000.000000000000000 ) ;
#268 = CARTESIAN_POINT ( 'NONE',  ( 6.576353311421287553E-14, -0.7500000000000013323, 205.5000000000000284 ) ) ;
#269 = ADVANCED_FACE ( 'NONE', ( #164 ), #220, .F. ) ;
#270 = CYLINDRICAL_SURFACE ( 'NONE', #127, 2.000000000000001776 ) ;
#271 = PRODUCT_DEFINITION ( 'UNKNOWN', '', #288, #361 ) ;
#272 = LINE ( 'NONE', #299, #103 ) ;
#273 = AXIS2_PLACEMENT_3D ( 'NONE', #163, #101, #106 ) ;
#274 = CARTESIAN_POINT ( 'NONE',  ( 269.9999999999999432, -0.7500000000000000000, 215.0000000000000000 ) ) ;
#275 = ORIENTED_EDGE ( 'NONE', *, *, #302, .T. ) ;
#276 = DIRECTION ( 'NONE',  ( -0.000000000000000000, 1.000000000000000000, -0.000000000000000000 ) ) ;
#277 = EDGE_CURVE ( 'NONE', #171, #56, #104, .T. ) ;
#278 = LINE ( 'NONE', #335, #247 ) ;
#279 = ADVANCED_FACE ( 'NONE', ( #64 ), #206, .F. ) ;
#280 = PLANE ( 'NONE',  #110 ) ;
#281 = CARTESIAN_POINT ( 'NONE',  ( 269.9999999999999432, 0.7500000000000000000, -215.0000000000000000 ) ) ;
#282 = DIRECTION ( 'NONE',  ( -0.000000000000000000, 1.000000000000000000, -0.000000000000000000 ) ) ;
#283 = SURFACE_STYLE_USAGE ( .BOTH. , #112 ) ;
#284 = VERTEX_POINT ( 'NONE', #291 ) ;
#285 = DIRECTION ( 'NONE',  ( -0.000000000000000000, 1.000000000000000000, -0.000000000000000000 ) ) ;
#286 = EDGE_LOOP ( 'NONE', ( #45, #317, #25, #365 ) ) ;
#287 = UNCERTAINTY_MEASURE_WITH_UNIT (LENGTH_MEASURE( 1.000000000000000082E-05 ), #58, 'distance_accuracy_value', 'NONE');
#288 = PRODUCT_DEFINITION_FORMATION_WITH_SPECIFIED_SOURCE ( 'ANY', '', #244, .NOT_KNOWN. ) ;
#289 = ORIENTED_EDGE ( 'NONE', *, *, #21, .T. ) ;
#290 = ORIENTED_EDGE ( 'NONE', *, *, #93, .F. ) ;
#291 = CARTESIAN_POINT ( 'NONE',  ( 6.551860375438340524E-14, -0.7500000000000013323, 209.5000000000000284 ) ) ;
#292 = ORIENTED_EDGE ( 'NONE', *, *, #332, .F. ) ;
#293 = APPLICATION_PROTOCOL_DEFINITION ( 'draft international standard', 'automotive_design', 1998, #212 ) ;
#294 = CARTESIAN_POINT ( 'NONE',  ( 6.576353311421287553E-14, 0.7499999999999998890, 205.5000000000000284 ) ) ;
#295 = CARTESIAN_POINT ( 'NONE',  ( -270.0000000000000568, 0.7500000000000000000, -215.0000000000000000 ) ) ;
#296 = DIRECTION ( 'NONE',  ( 0.000000000000000000, 0.000000000000000000, 1.000000000000000000 ) ) ;
#297 = LINE ( 'NONE', #43, #364 ) ;
#298 = VERTEX_POINT ( 'NONE', #62 ) ;
#299 = CARTESIAN_POINT ( 'NONE',  ( 6.551860375438340524E-14, 0.7500000000000000000, 209.5000000000000284 ) ) ;
#300 = ADVANCED_FACE ( 'NONE', ( #227, #229, #34 ), #310, .T. ) ;
#301 = DIRECTION ( 'NONE',  ( 0.000000000000000000, 0.000000000000000000, 1.000000000000000000 ) ) ;
#302 = EDGE_CURVE ( 'NONE', #344, #298, #362, .T. ) ;
#303 = COLOUR_RGB ( '',0.9882352941176471006, 0.7372549019607843590, 0.5176470588235293491 ) ;
#304 = AXIS2_PLACEMENT_3D ( 'NONE', #30, #338, #89 ) ;
#305 = FACE_OUTER_BOUND ( 'NONE', #253, .T. ) ;
#306 = VECTOR ( 'NONE', #136, 1000.000000000000000 ) ;
#307 = SURFACE_STYLE_FILL_AREA ( #176 ) ;
#308 = EDGE_LOOP ( 'NONE', ( #219, #265 ) ) ;
#309 = ORIENTED_EDGE ( 'NONE', *, *, #156, .F. ) ;
#310 = PLANE ( 'NONE',  #329 ) ;
#311 = ORIENTED_EDGE ( 'NONE', *, *, #125, .T. ) ;
#312 = CIRCLE ( 'NONE', #153, 2.000000000000001776 ) ;
#313 =( NAMED_UNIT ( * ) SI_UNIT ( $, .STERADIAN. ) SOLID_ANGLE_UNIT ( ) );
#314 = MECHANICAL_DESIGN_GEOMETRIC_PRESENTATION_REPRESENTATION (  '', ( #94 ), #61 ) ;
#315 = VERTEX_POINT ( 'NONE', #32 ) ;
#316 = CARTESIAN_POINT ( 'NONE',  ( -270.0000000000000568, -0.7500000000000000000, 215.0000000000000000 ) ) ;
#317 = ORIENTED_EDGE ( 'NONE', *, *, #88, .T. ) ;
#318 = DIRECTION ( 'NONE',  ( 1.000000000000000000, 0.000000000000000000, 0.000000000000000000 ) ) ;
#319 = CARTESIAN_POINT ( 'NONE',  ( 6.576353311421287553E-14, 0.7499999999999998890, -209.5000000000000284 ) ) ;
#320 = EDGE_CURVE ( 'NONE', #3, #235, #115, .T. ) ;
#321 = DIRECTION ( 'NONE',  ( -0.000000000000000000, 1.000000000000000000, -0.000000000000000000 ) ) ;
#322 = MECHANICAL_DESIGN_GEOMETRIC_PRESENTATION_REPRESENTATION (  '', ( #129 ), #357 ) ;
#323 =( GEOMETRIC_REPRESENTATION_CONTEXT ( 3 ) GLOBAL_UNCERTAINTY_ASSIGNED_CONTEXT ( ( #287 ) ) GLOBAL_UNIT_ASSIGNED_CONTEXT ( ( #58, #86, #313 ) ) REPRESENTATION_CONTEXT ( 'NONE', 'WORKASPACE' ) );
#324 = SHAPE_DEFINITION_REPRESENTATION ( #157, #185 ) ;
#325 = ORIENTED_EDGE ( 'NONE', *, *, #125, .F. ) ;
#326 = CARTESIAN_POINT ( 'NONE',  ( 6.551860375438340524E-14, 0.7500000000000000000, -207.5000000000000284 ) ) ;
#327 = ADVANCED_FACE ( 'NONE', ( #256 ), #223, .F. ) ;
#328 = CARTESIAN_POINT ( 'NONE',  ( -270.0000000000000568, -0.7500000000000000000, 215.0000000000000000 ) ) ;
#329 = AXIS2_PLACEMENT_3D ( 'NONE', #55, #254, #137 ) ;
#330 = CARTESIAN_POINT ( 'NONE',  ( -270.0000000000000568, -0.7500000000000000000, -215.0000000000000000 ) ) ;
#331 = FILL_AREA_STYLE_COLOUR ( '', #197 ) ;
#332 = EDGE_CURVE ( 'NONE', #235, #363, #82, .T. ) ;
#333 = CARTESIAN_POINT ( 'NONE',  ( 6.576353311421287553E-14, 0.7500000000000000000, 205.5000000000000284 ) ) ;
#334 = FACE_BOUND ( 'NONE', #134, .T. ) ;
#335 = CARTESIAN_POINT ( 'NONE',  ( 6.551860375438340524E-14, 0.7500000000000000000, -205.5000000000000284 ) ) ;
#336 = PRESENTATION_STYLE_ASSIGNMENT (( #283 ) ) ;
#337 = VECTOR ( 'NONE', #69, 1000.000000000000000 ) ;
#338 = DIRECTION ( 'NONE',  ( -1.000000000000000000, 0.000000000000000000, 0.000000000000000000 ) ) ;
#339 = ORIENTED_EDGE ( 'NONE', *, *, #131, .F. ) ;
#340 = ORIENTED_EDGE ( 'NONE', *, *, #26, .F. ) ;
#341 =( NAMED_UNIT ( * ) SI_UNIT ( $, .STERADIAN. ) SOLID_ANGLE_UNIT ( ) );
#342 = ORIENTED_EDGE ( 'NONE', *, *, #320, .F. ) ;
#343 = CIRCLE ( 'NONE', #184, 2.000000000000001776 ) ;
#344 = VERTEX_POINT ( 'NONE', #27 ) ;
#345 = EDGE_CURVE ( 'NONE', #284, #59, #343, .T. ) ;
#346 = SURFACE_SIDE_STYLE ('',( #350 ) ) ;
#347 = ORIENTED_EDGE ( 'NONE', *, *, #21, .F. ) ;
#348 = CARTESIAN_POINT ( 'NONE',  ( 6.551860375438340524E-14, 0.7499999999999998890, -207.5000000000000284 ) ) ;
#349 = CARTESIAN_POINT ( 'NONE',  ( 6.551860375438340524E-14, 0.7499999999999998890, 207.5000000000000284 ) ) ;
#350 = SURFACE_STYLE_FILL_AREA ( #211 ) ;
#351 = DIRECTION ( 'NONE',  ( 0.000000000000000000, 0.000000000000000000, 1.000000000000000000 ) ) ;
#352 = DIRECTION ( 'NONE',  ( 0.000000000000000000, 0.000000000000000000, 1.000000000000000000 ) ) ;
#353 = FACE_OUTER_BOUND ( 'NONE', #158, .T. ) ;
#354 = AXIS2_PLACEMENT_3D ( 'NONE', #71, #276, #96 ) ;
#355 = CARTESIAN_POINT ( 'NONE',  ( 269.9999999999999432, 0.7500000000000000000, 215.0000000000000000 ) ) ;
#356 = CARTESIAN_POINT ( 'NONE',  ( 6.551860375438340524E-14, 0.7499999999999998890, -205.5000000000000284 ) ) ;
#357 =( GEOMETRIC_REPRESENTATION_CONTEXT ( 3 ) GLOBAL_UNCERTAINTY_ASSIGNED_CONTEXT ( ( #201 ) ) GLOBAL_UNIT_ASSIGNED_CONTEXT ( ( #248, #47, #192 ) ) REPRESENTATION_CONTEXT ( 'NONE', 'WORKASPACE' ) );
#358 = VECTOR ( 'NONE', #172, 1000.000000000000000 ) ;
#359 = CARTESIAN_POINT ( 'NONE',  ( -270.0000000000000568, 0.7500000000000000000, 215.0000000000000000 ) ) ;
#360 =( NAMED_UNIT ( * ) PLANE_ANGLE_UNIT ( ) SI_UNIT ( $, .RADIAN. ) );
#361 = PRODUCT_DEFINITION_CONTEXT ( 'detailed design', #212, 'design' ) ;
#362 = LINE ( 'NONE', #196, #130 ) ;
#363 = VERTEX_POINT ( 'NONE', #259 ) ;
#364 = VECTOR ( 'NONE', #73, 1000.000000000000000 ) ;
#365 = ORIENTED_EDGE ( 'NONE', *, *, #161, .F. ) ;
ENDSEC;
END-ISO-10303-21;
