ISO-10303-21;
HEADER;
FILE_DESCRIPTION (( 'STEP AP214' ),
    '1' );
FILE_NAME ('INGUN_115943.STEP',
    '2024-03-11T08:43:15',
    ( '' ),
    ( '' ),
    'SwSTEP 2.0',
    'SolidWorks 2021',
    '' );
FILE_SCHEMA (( 'AUTOMOTIVE_DESIGN' ));
ENDSEC;

DATA;
#1 =( LENGTH_UNIT ( ) NAMED_UNIT ( * ) SI_UNIT ( .MILLI., .METRE. ) );
#2 = DIRECTION ( 'NONE',  ( -0.000000000000000000, -0.000000000000000000, 1.000000000000000000 ) ) ;
#3 = DIRECTION ( 'NONE',  ( 1.000000000000000000, -0.000000000000000000, 0.000000000000000000 ) ) ;
#4 = CARTESIAN_POINT ( 'NONE',  ( -230.0000000000000284, 0.7500000000000000000, -169.9999999999999432 ) ) ;
#5 = DIRECTION ( 'NONE',  ( 0.000000000000000000, 0.000000000000000000, 1.000000000000000000 ) ) ;
#6 = LINE ( 'NONE', #271, #37 ) ;
#7 = LINE ( 'NONE', #346, #344 ) ;
#8 = AXIS2_PLACEMENT_3D ( 'NONE', #97, #74, #278 ) ;
#9 = VERTEX_POINT ( 'NONE', #340 ) ;
#10 = CARTESIAN_POINT ( 'NONE',  ( 5.449678256205722297E-14, 0.7500000000000000000, -162.5000000000000000 ) ) ;
#11 = EDGE_CURVE ( 'NONE', #252, #155, #100, .T. ) ;
#12 = ORIENTED_EDGE ( 'NONE', *, *, #117, .T. ) ;
#13 = FACE_OUTER_BOUND ( 'NONE', #358, .T. ) ;
#14 = EDGE_CURVE ( 'NONE', #9, #323, #127, .T. ) ;
#15 =( NAMED_UNIT ( * ) PLANE_ANGLE_UNIT ( ) SI_UNIT ( $, .RADIAN. ) );
#16 = MECHANICAL_DESIGN_GEOMETRIC_PRESENTATION_REPRESENTATION (  '', ( #184 ), #22 ) ;
#17 = CIRCLE ( 'NONE', #222, 2.000000000000001776 ) ;
#18 = SURFACE_STYLE_USAGE ( .BOTH. , #190 ) ;
#19 = ORIENTED_EDGE ( 'NONE', *, *, #263, .T. ) ;
#20 = CARTESIAN_POINT ( 'NONE',  ( 229.9999999999999716, 0.7500000000000000000, 170.0000000000000853 ) ) ;
#21 = ORIENTED_EDGE ( 'NONE', *, *, #193, .T. ) ;
#22 =( GEOMETRIC_REPRESENTATION_CONTEXT ( 3 ) GLOBAL_UNCERTAINTY_ASSIGNED_CONTEXT ( ( #200 ) ) GLOBAL_UNIT_ASSIGNED_CONTEXT ( ( #290, #225, #291 ) ) REPRESENTATION_CONTEXT ( 'NONE', 'WORKASPACE' ) );
#23 =( LENGTH_UNIT ( ) NAMED_UNIT ( * ) SI_UNIT ( .MILLI., .METRE. ) );
#24 = VERTEX_POINT ( 'NONE', #80 ) ;
#25 = APPLICATION_PROTOCOL_DEFINITION ( 'draft international standard', 'automotive_design', 1998, #107 ) ;
#26 = ADVANCED_FACE ( 'NONE', ( #139 ), #203, .F. ) ;
#27 = DIRECTION ( 'NONE',  ( 0.000000000000000000, -0.000000000000000000, -1.000000000000000000 ) ) ;
#28 = CIRCLE ( 'NONE', #216, 2.000000000000001776 ) ;
#29 = ADVANCED_FACE ( 'NONE', ( #198, #136, #338 ), #114, .T. ) ;
#30 = DIRECTION ( 'NONE',  ( -0.000000000000000000, 1.000000000000000000, -0.000000000000000000 ) ) ;
#31 = ORIENTED_EDGE ( 'NONE', *, *, #66, .F. ) ;
#32 = CARTESIAN_POINT ( 'NONE',  ( 5.449678256205722297E-14, 0.7499999999999998890, -162.5000000000000000 ) ) ;
#33 = DIRECTION ( 'NONE',  ( 0.000000000000000000, 0.000000000000000000, 1.000000000000000000 ) ) ;
#34 = DIRECTION ( 'NONE',  ( 0.000000000000000000, -1.000000000000000000, 0.000000000000000000 ) ) ;
#35 = EDGE_CURVE ( 'NONE', #133, #24, #365, .T. ) ;
#36 = CLOSED_SHELL ( 'NONE', ( #199, #64, #89, #187, #40, #26, #231, #29, #228, #304 ) ) ;
#37 = VECTOR ( 'NONE', #325, 1000.000000000000000 ) ;
#38 = FACE_OUTER_BOUND ( 'NONE', #256, .T. ) ;
#39 = CARTESIAN_POINT ( 'NONE',  ( 5.449678256205722297E-14, -0.7500000000000013323, -162.5000000000000000 ) ) ;
#40 = ADVANCED_FACE ( 'NONE', ( #316 ), #110, .F. ) ;
#41 = DIRECTION ( 'NONE',  ( 0.000000000000000000, 0.000000000000000000, 1.000000000000000000 ) ) ;
#42 = ORIENTED_EDGE ( 'NONE', *, *, #11, .F. ) ;
#43 = DIRECTION ( 'NONE',  ( -0.000000000000000000, 1.000000000000000000, -0.000000000000000000 ) ) ;
#44 =( GEOMETRIC_REPRESENTATION_CONTEXT ( 3 ) GLOBAL_UNCERTAINTY_ASSIGNED_CONTEXT ( ( #56 ) ) GLOBAL_UNIT_ASSIGNED_CONTEXT ( ( #351, #15, #244 ) ) REPRESENTATION_CONTEXT ( 'NONE', 'WORKASPACE' ) );
#45 = VERTEX_POINT ( 'NONE', #259 ) ;
#46 = DIRECTION ( 'NONE',  ( 0.000000000000000000, 0.000000000000000000, 1.000000000000000000 ) ) ;
#47 = CARTESIAN_POINT ( 'NONE',  ( -230.0000000000000284, 0.7500000000000000000, 170.0000000000000853 ) ) ;
#48 = CYLINDRICAL_SURFACE ( 'NONE', #267, 2.000000000000001776 ) ;
#49 = MECHANICAL_DESIGN_GEOMETRIC_PRESENTATION_REPRESENTATION (  '', ( #58 ), #44 ) ;
#50 = CARTESIAN_POINT ( 'NONE',  ( -230.0000000000000284, 0.7500000000000000000, 170.0000000000000853 ) ) ;
#51 = ORIENTED_EDGE ( 'NONE', *, *, #272, .F. ) ;
#52 = ORIENTED_EDGE ( 'NONE', *, *, #95, .F. ) ;
#53 = LINE ( 'NONE', #47, #175 ) ;
#54 = ORIENTED_EDGE ( 'NONE', *, *, #265, .F. ) ;
#55 = CARTESIAN_POINT ( 'NONE',  ( -230.0000000000000284, -0.7500000000000000000, 170.0000000000000853 ) ) ;
#56 = UNCERTAINTY_MEASURE_WITH_UNIT (LENGTH_MEASURE( 1.000000000000000082E-05 ), #351, 'distance_accuracy_value', 'NONE');
#57 = SURFACE_STYLE_USAGE ( .BOTH. , #359 ) ;
#58 = STYLED_ITEM ( 'NONE', ( #249 ), #280 ) ;
#59 = FILL_AREA_STYLE_COLOUR ( '', #167 ) ;
#60 = CARTESIAN_POINT ( 'NONE',  ( 5.449678256205722297E-14, 0.7499999999999998890, -160.5000000000000000 ) ) ;
#61 = CIRCLE ( 'NONE', #273, 2.000000000000001776 ) ;
#62 =( GEOMETRIC_REPRESENTATION_CONTEXT ( 3 ) GLOBAL_UNCERTAINTY_ASSIGNED_CONTEXT ( ( #138 ) ) GLOBAL_UNIT_ASSIGNED_CONTEXT ( ( #1, #141, #285 ) ) REPRESENTATION_CONTEXT ( 'NONE', 'WORKASPACE' ) );
#63 = DIRECTION ( 'NONE',  ( -0.000000000000000000, 1.000000000000000000, -0.000000000000000000 ) ) ;
#64 = ADVANCED_FACE ( 'NONE', ( #111 ), #112, .F. ) ;
#65 = CARTESIAN_POINT ( 'NONE',  ( -230.0000000000000284, 0.7500000000000000000, 170.0000000000000853 ) ) ;
#66 = EDGE_CURVE ( 'NONE', #149, #135, #143, .T. ) ;
#67 = DIRECTION ( 'NONE',  ( -0.000000000000000000, 1.000000000000000000, -0.000000000000000000 ) ) ;
#68 = ORIENTED_EDGE ( 'NONE', *, *, #331, .F. ) ;
#69 = CARTESIAN_POINT ( 'NONE',  ( -230.0000000000000284, 0.7500000000000000000, -169.9999999999999432 ) ) ;
#70 = AXIS2_PLACEMENT_3D ( 'NONE', #123, #43, #154 ) ;
#71 =( NAMED_UNIT ( * ) PLANE_ANGLE_UNIT ( ) SI_UNIT ( $, .RADIAN. ) );
#72 = CARTESIAN_POINT ( 'NONE',  ( 229.9999999999999716, 0.7500000000000000000, 170.0000000000000853 ) ) ;
#73 = EDGE_LOOP ( 'NONE', ( #102, #12 ) ) ;
#74 = DIRECTION ( 'NONE',  ( -0.000000000000000000, 1.000000000000000000, -0.000000000000000000 ) ) ;
#75 = ORIENTED_EDGE ( 'NONE', *, *, #253, .F. ) ;
#76 = CARTESIAN_POINT ( 'NONE',  ( 5.449678256205722297E-14, -0.7500000000000013323, 164.5000000000000000 ) ) ;
#77 = EDGE_LOOP ( 'NONE', ( #165, #319 ) ) ;
#78 = ORIENTED_EDGE ( 'NONE', *, *, #91, .F. ) ;
#79 = SURFACE_STYLE_FILL_AREA ( #108 ) ;
#80 = CARTESIAN_POINT ( 'NONE',  ( -230.0000000000000284, -0.7500000000000000000, 170.0000000000000853 ) ) ;
#81 = CARTESIAN_POINT ( 'NONE',  ( -230.0000000000000284, 0.7500000000000000000, 170.0000000000000853 ) ) ;
#82 = PRODUCT_CONTEXT ( 'NONE', #107, 'mechanical' ) ;
#83 = SURFACE_STYLE_USAGE ( .BOTH. , #201 ) ;
#84 = EDGE_CURVE ( 'NONE', #24, #45, #342, .T. ) ;
#85 = DIRECTION ( 'NONE',  ( -0.000000000000000000, 1.000000000000000000, -0.000000000000000000 ) ) ;
#86 = LINE ( 'NONE', #207, #288 ) ;
#87 = ORIENTED_EDGE ( 'NONE', *, *, #91, .T. ) ;
#88 = CARTESIAN_POINT ( 'NONE',  ( 5.449678256205722297E-14, -0.7500000000000013323, 162.5000000000000000 ) ) ;
#89 = ADVANCED_FACE ( 'NONE', ( #197 ), #286, .F. ) ;
#90 = DIRECTION ( 'NONE',  ( -0.000000000000000000, 1.000000000000000000, -0.000000000000000000 ) ) ;
#91 = EDGE_CURVE ( 'NONE', #105, #252, #205, .T. ) ;
#92 = DIRECTION ( 'NONE',  ( 0.000000000000000000, 0.000000000000000000, 1.000000000000000000 ) ) ;
#93 = VERTEX_POINT ( 'NONE', #147 ) ;
#94 = FACE_BOUND ( 'NONE', #174, .T. ) ;
#95 = EDGE_CURVE ( 'NONE', #347, #105, #17, .T. ) ;
#96 = AXIS2_PLACEMENT_3D ( 'NONE', #341, #85, #204 ) ;
#97 = CARTESIAN_POINT ( 'NONE',  ( 5.449678256205722297E-14, -0.7500000000000013323, 162.5000000000000000 ) ) ;
#98 = VERTEX_POINT ( 'NONE', #296 ) ;
#99 = DIRECTION ( 'NONE',  ( -1.000000000000000000, -0.000000000000000000, -0.000000000000000000 ) ) ;
#100 = CIRCLE ( 'NONE', #281, 2.000000000000001776 ) ;
#101 = VECTOR ( 'NONE', #332, 1000.000000000000000 ) ;
#102 = ORIENTED_EDGE ( 'NONE', *, *, #265, .T. ) ;
#103 = PRODUCT_RELATED_PRODUCT_CATEGORY ( 'part', '', ( #349 ) ) ;
#104 = CARTESIAN_POINT ( 'NONE',  ( 5.449678256205722297E-14, 0.7500000000000000000, 164.5000000000000000 ) ) ;
#105 = VERTEX_POINT ( 'NONE', #343 ) ;
#106 = ORIENTED_EDGE ( 'NONE', *, *, #35, .T. ) ;
#107 = APPLICATION_CONTEXT ( 'automotive_design' ) ;
#108 = FILL_AREA_STYLE ('',( #226 ) ) ;
#109 = SURFACE_STYLE_FILL_AREA ( #317 ) ;
#110 = PLANE ( 'NONE',  #247 ) ;
#111 = FACE_OUTER_BOUND ( 'NONE', #308, .T. ) ;
#112 = CYLINDRICAL_SURFACE ( 'NONE', #96, 2.000000000000001776 ) ;
#113 = PRESENTATION_LAYER_ASSIGNMENT (  '', '', ( #58 ) ) ;
#114 = PLANE ( 'NONE',  #293 ) ;
#115 = EDGE_CURVE ( 'NONE', #336, #183, #324, .T. ) ;
#116 = DIRECTION ( 'NONE',  ( -0.000000000000000000, 1.000000000000000000, -0.000000000000000000 ) ) ;
#117 = EDGE_CURVE ( 'NONE', #98, #297, #61, .T. ) ;
#118 = PLANE ( 'NONE',  #234 ) ;
#119 = ORIENTED_EDGE ( 'NONE', *, *, #170, .T. ) ;
#120 = ADVANCED_BREP_SHAPE_REPRESENTATION ( 'INGUN_115943', ( #280, #250 ), #311 ) ;
#121 = CYLINDRICAL_SURFACE ( 'NONE', #153, 2.000000000000001776 ) ;
#122 = ORIENTED_EDGE ( 'NONE', *, *, #161, .F. ) ;
#123 = CARTESIAN_POINT ( 'NONE',  ( 5.449678256205722297E-14, 0.7500000000000000000, 162.5000000000000000 ) ) ;
#124 = EDGE_CURVE ( 'NONE', #98, #9, #86, .T. ) ;
#125 = ORIENTED_EDGE ( 'NONE', *, *, #275, .F. ) ;
#126 = CARTESIAN_POINT ( 'NONE',  ( 229.9999999999999716, 0.7500000000000000000, -169.9999999999999432 ) ) ;
#127 = CIRCLE ( 'NONE', #315, 2.000000000000001776 ) ;
#128 = FACE_OUTER_BOUND ( 'NONE', #192, .T. ) ;
#129 = CARTESIAN_POINT ( 'NONE',  ( 229.9999999999999716, -0.7500000000000000000, 170.0000000000000853 ) ) ;
#130 = DIRECTION ( 'NONE',  ( -0.000000000000000000, 1.000000000000000000, -0.000000000000000000 ) ) ;
#131 = ORIENTED_EDGE ( 'NONE', *, *, #115, .F. ) ;
#132 = DIRECTION ( 'NONE',  ( -0.000000000000000000, -0.000000000000000000, 1.000000000000000000 ) ) ;
#133 = VERTEX_POINT ( 'NONE', #292 ) ;
#134 = CARTESIAN_POINT ( 'NONE',  ( 5.449678256205722297E-14, 0.7499999999999998890, 164.5000000000000000 ) ) ;
#135 = VERTEX_POINT ( 'NONE', #69 ) ;
#136 = FACE_BOUND ( 'NONE', #73, .T. ) ;
#137 = VECTOR ( 'NONE', #173, 1000.000000000000000 ) ;
#138 = UNCERTAINTY_MEASURE_WITH_UNIT (LENGTH_MEASURE( 1.000000000000000082E-05 ), #1, 'distance_accuracy_value', 'NONE');
#139 = FACE_OUTER_BOUND ( 'NONE', #360, .T. ) ;
#140 = ORIENTED_EDGE ( 'NONE', *, *, #263, .F. ) ;
#141 =( NAMED_UNIT ( * ) PLANE_ANGLE_UNIT ( ) SI_UNIT ( $, .RADIAN. ) );
#142 = DIRECTION ( 'NONE',  ( -0.000000000000000000, 1.000000000000000000, -0.000000000000000000 ) ) ;
#143 = LINE ( 'NONE', #4, #144 ) ;
#144 = VECTOR ( 'NONE', #229, 1000.000000000000000 ) ;
#145 = PRESENTATION_LAYER_ASSIGNMENT (  '', '', ( #235 ) ) ;
#146 = APPLICATION_CONTEXT ( 'automotive_design' ) ;
#147 = CARTESIAN_POINT ( 'NONE',  ( 229.9999999999999716, -0.7500000000000000000, -169.9999999999999432 ) ) ;
#148 = CARTESIAN_POINT ( 'NONE',  ( 229.9999999999999716, 0.7500000000000000000, 170.0000000000000853 ) ) ;
#149 = VERTEX_POINT ( 'NONE', #264 ) ;
#150 = FACE_OUTER_BOUND ( 'NONE', #169, .T. ) ;
#151 = ORIENTED_EDGE ( 'NONE', *, *, #209, .F. ) ;
#152 = CIRCLE ( 'NONE', #364, 2.000000000000001776 ) ;
#153 = AXIS2_PLACEMENT_3D ( 'NONE', #10, #67, #328 ) ;
#154 = DIRECTION ( 'NONE',  ( 0.000000000000000000, 0.000000000000000000, 1.000000000000000000 ) ) ;
#155 = VERTEX_POINT ( 'NONE', #179 ) ;
#156 = CARTESIAN_POINT ( 'NONE',  ( -230.0000000000000284, 0.7500000000000000000, -169.9999999999999432 ) ) ;
#157 =( NAMED_UNIT ( * ) SI_UNIT ( $, .STERADIAN. ) SOLID_ANGLE_UNIT ( ) );
#158 = EDGE_CURVE ( 'NONE', #105, #347, #152, .T. ) ;
#159 = VECTOR ( 'NONE', #186, 1000.000000000000000 ) ;
#160 = LINE ( 'NONE', #72, #282 ) ;
#161 = EDGE_CURVE ( 'NONE', #149, #93, #7, .T. ) ;
#162 = CARTESIAN_POINT ( 'NONE',  ( 5.449678256205722297E-14, 0.7500000000000000000, -162.5000000000000000 ) ) ;
#163 = ORIENTED_EDGE ( 'NONE', *, *, #84, .T. ) ;
#164 = LINE ( 'NONE', #355, #329 ) ;
#165 = ORIENTED_EDGE ( 'NONE', *, *, #158, .T. ) ;
#166 = CARTESIAN_POINT ( 'NONE',  ( -230.0000000000000284, -0.7500000000000000000, -169.9999999999999432 ) ) ;
#167 = COLOUR_RGB ( '',0.9882352941176471006, 0.7372549019607843590, 0.5176470588235293491 ) ;
#168 = VECTOR ( 'NONE', #130, 1000.000000000000000 ) ;
#169 = EDGE_LOOP ( 'NONE', ( #279, #54, #239, #215 ) ) ;
#170 = EDGE_CURVE ( 'NONE', #155, #252, #28, .T. ) ;
#171 = PRODUCT_DEFINITION_FORMATION_WITH_SPECIFIED_SOURCE ( 'ANY', '', #349, .NOT_KNOWN. ) ;
#172 = SHAPE_DEFINITION_REPRESENTATION ( #240, #120 ) ;
#173 = DIRECTION ( 'NONE',  ( 1.000000000000000000, 0.000000000000000000, 0.000000000000000000 ) ) ;
#174 = EDGE_LOOP ( 'NONE', ( #151, #289 ) ) ;
#175 = VECTOR ( 'NONE', #132, 1000.000000000000000 ) ;
#176 = DIRECTION ( 'NONE',  ( 1.000000000000000000, 0.000000000000000000, 0.000000000000000000 ) ) ;
#177 = CARTESIAN_POINT ( 'NONE',  ( -230.0000000000000284, 0.7500000000000000000, 170.0000000000000853 ) ) ;
#178 = CARTESIAN_POINT ( 'NONE',  ( 5.449678256205722297E-14, 0.7500000000000000000, -160.5000000000000000 ) ) ;
#179 = CARTESIAN_POINT ( 'NONE',  ( 5.474171192188669327E-14, 0.7499999999999998890, -164.5000000000000000 ) ) ;
#180 = DIRECTION ( 'NONE',  ( -0.000000000000000000, 1.000000000000000000, -0.000000000000000000 ) ) ;
#181 = ORIENTED_EDGE ( 'NONE', *, *, #193, .F. ) ;
#182 = DIRECTION ( 'NONE',  ( 0.000000000000000000, 0.000000000000000000, 1.000000000000000000 ) ) ;
#183 = VERTEX_POINT ( 'NONE', #148 ) ;
#184 = STYLED_ITEM ( 'NONE', ( #313 ), #29 ) ;
#185 = CARTESIAN_POINT ( 'NONE',  ( 5.449678256205722297E-14, 0.7499999999999998890, -162.5000000000000000 ) ) ;
#186 = DIRECTION ( 'NONE',  ( 0.000000000000000000, 0.000000000000000000, -1.000000000000000000 ) ) ;
#187 = ADVANCED_FACE ( 'NONE', ( #38 ), #118, .F. ) ;
#188 = AXIS2_PLACEMENT_3D ( 'NONE', #295, #266, #232 ) ;
#189 = VECTOR ( 'NONE', #213, 1000.000000000000000 ) ;
#190 = SURFACE_SIDE_STYLE ('',( #194 ) ) ;
#191 = ORIENTED_EDGE ( 'NONE', *, *, #11, .T. ) ;
#192 = EDGE_LOOP ( 'NONE', ( #181, #251, #87, #191 ) ) ;
#193 = EDGE_CURVE ( 'NONE', #347, #155, #6, .T. ) ;
#194 = SURFACE_STYLE_FILL_AREA ( #274 ) ;
#195 = ORIENTED_EDGE ( 'NONE', *, *, #35, .F. ) ;
#196 = AXIS2_PLACEMENT_3D ( 'NONE', #126, #241, #318 ) ;
#197 = FACE_OUTER_BOUND ( 'NONE', #300, .T. ) ;
#198 = FACE_BOUND ( 'NONE', #77, .T. ) ;
#199 = ADVANCED_FACE ( 'NONE', ( #233 ), #121, .F. ) ;
#200 = UNCERTAINTY_MEASURE_WITH_UNIT (LENGTH_MEASURE( 1.000000000000000082E-05 ), #290, 'distance_accuracy_value', 'NONE');
#201 = SURFACE_SIDE_STYLE ('',( #109 ) ) ;
#202 = PRESENTATION_STYLE_ASSIGNMENT (( #57 ) ) ;
#203 = PLANE ( 'NONE',  #352 ) ;
#204 = DIRECTION ( 'NONE',  ( 0.000000000000000000, 0.000000000000000000, 1.000000000000000000 ) ) ;
#205 = LINE ( 'NONE', #178, #337 ) ;
#206 = EDGE_LOOP ( 'NONE', ( #42, #270 ) ) ;
#207 = CARTESIAN_POINT ( 'NONE',  ( 5.474171192188669327E-14, 0.7500000000000000000, 160.5000000000000000 ) ) ;
#208 = DIRECTION ( 'NONE',  ( -0.000000000000000000, 1.000000000000000000, -0.000000000000000000 ) ) ;
#209 = EDGE_CURVE ( 'NONE', #323, #9, #294, .T. ) ;
#210 = DIRECTION ( 'NONE',  ( 1.000000000000000000, 0.000000000000000000, -0.000000000000000000 ) ) ;
#211 = ORIENTED_EDGE ( 'NONE', *, *, #254, .T. ) ;
#212 = PLANE ( 'NONE',  #196 ) ;
#213 = DIRECTION ( 'NONE',  ( 0.000000000000000000, 0.000000000000000000, -1.000000000000000000 ) ) ;
#214 = LINE ( 'NONE', #129, #189 ) ;
#215 = ORIENTED_EDGE ( 'NONE', *, *, #209, .T. ) ;
#216 = AXIS2_PLACEMENT_3D ( 'NONE', #185, #345, #92 ) ;
#217 = CARTESIAN_POINT ( 'NONE',  ( 5.474171192188669327E-14, -0.7500000000000013323, -164.5000000000000000 ) ) ;
#218 = ORIENTED_EDGE ( 'NONE', *, *, #302, .F. ) ;
#219 = DIRECTION ( 'NONE',  ( 0.000000000000000000, 0.000000000000000000, 1.000000000000000000 ) ) ;
#220 = ORIENTED_EDGE ( 'NONE', *, *, #84, .F. ) ;
#221 = EDGE_LOOP ( 'NONE', ( #125, #220, #195, #68 ) ) ;
#222 = AXIS2_PLACEMENT_3D ( 'NONE', #238, #90, #5 ) ;
#223 = DIRECTION ( 'NONE',  ( 0.000000000000000000, 0.000000000000000000, -1.000000000000000000 ) ) ;
#224 = DIRECTION ( 'NONE',  ( -1.000000000000000000, 0.000000000000000000, -0.000000000000000000 ) ) ;
#225 =( NAMED_UNIT ( * ) PLANE_ANGLE_UNIT ( ) SI_UNIT ( $, .RADIAN. ) );
#226 = FILL_AREA_STYLE_COLOUR ( '', #242 ) ;
#227 = DIRECTION ( 'NONE',  ( 0.000000000000000000, 0.000000000000000000, -1.000000000000000000 ) ) ;
#228 = ADVANCED_FACE ( 'NONE', ( #150 ), #298, .F. ) ;
#229 = DIRECTION ( 'NONE',  ( -1.000000000000000000, -0.000000000000000000, -0.000000000000000000 ) ) ;
#230 = ORIENTED_EDGE ( 'NONE', *, *, #327, .T. ) ;
#231 = ADVANCED_FACE ( 'NONE', ( #269, #94, #13 ), #212, .F. ) ;
#232 = DIRECTION ( 'NONE',  ( 0.000000000000000000, 0.000000000000000000, 1.000000000000000000 ) ) ;
#233 = FACE_OUTER_BOUND ( 'NONE', #356, .T. ) ;
#234 = AXIS2_PLACEMENT_3D ( 'NONE', #156, #41, #210 ) ;
#235 = STYLED_ITEM ( 'NONE', ( #202 ), #120 ) ;
#236 = DIRECTION ( 'NONE',  ( 0.000000000000000000, 0.000000000000000000, 1.000000000000000000 ) ) ;
#237 = ORIENTED_EDGE ( 'NONE', *, *, #124, .T. ) ;
#238 = CARTESIAN_POINT ( 'NONE',  ( 5.449678256205722297E-14, -0.7500000000000013323, -162.5000000000000000 ) ) ;
#239 = ORIENTED_EDGE ( 'NONE', *, *, #302, .T. ) ;
#240 = PRODUCT_DEFINITION_SHAPE ( 'NONE', 'NONE',  #307 ) ;
#241 = DIRECTION ( 'NONE',  ( 0.000000000000000000, -1.000000000000000000, 0.000000000000000000 ) ) ;
#242 = COLOUR_RGB ( '',0.7529411764705882248, 1.000000000000000000, 0.7529411764705882248 ) ;
#243 = LINE ( 'NONE', #20, #159 ) ;
#244 =( NAMED_UNIT ( * ) SI_UNIT ( $, .STERADIAN. ) SOLID_ANGLE_UNIT ( ) );
#245 = LINE ( 'NONE', #166, #261 ) ;
#246 = EDGE_LOOP ( 'NONE', ( #106, #330, #268, #335 ) ) ;
#247 = AXIS2_PLACEMENT_3D ( 'NONE', #81, #3, #223 ) ;
#248 = CIRCLE ( 'NONE', #8, 2.000000000000001776 ) ;
#249 = PRESENTATION_STYLE_ASSIGNMENT (( #18 ) ) ;
#250 = AXIS2_PLACEMENT_3D ( 'NONE', #257, #33, #176 ) ;
#251 = ORIENTED_EDGE ( 'NONE', *, *, #158, .F. ) ;
#252 = VERTEX_POINT ( 'NONE', #60 ) ;
#253 = EDGE_CURVE ( 'NONE', #135, #133, #164, .T. ) ;
#254 = EDGE_CURVE ( 'NONE', #135, #336, #53, .T. ) ;
#255 = DIRECTION ( 'NONE',  ( 0.000000000000000000, 0.000000000000000000, 1.000000000000000000 ) ) ;
#256 = EDGE_LOOP ( 'NONE', ( #277, #75, #31, #333 ) ) ;
#257 = CARTESIAN_POINT ( 'NONE',  ( 0.000000000000000000, 0.000000000000000000, 0.000000000000000000 ) ) ;
#258 = CARTESIAN_POINT ( 'NONE',  ( -230.0000000000000284, -0.7500000000000000000, 170.0000000000000853 ) ) ;
#259 = CARTESIAN_POINT ( 'NONE',  ( 229.9999999999999716, -0.7500000000000000000, 170.0000000000000853 ) ) ;
#260 = PRESENTATION_LAYER_ASSIGNMENT (  '', '', ( #184 ) ) ;
#261 = VECTOR ( 'NONE', #99, 1000.000000000000000 ) ;
#262 = CARTESIAN_POINT ( 'NONE',  ( 5.449678256205722297E-14, 0.7499999999999998890, 162.5000000000000000 ) ) ;
#263 = EDGE_CURVE ( 'NONE', #183, #45, #160, .T. ) ;
#264 = CARTESIAN_POINT ( 'NONE',  ( 229.9999999999999716, 0.7500000000000000000, -169.9999999999999432 ) ) ;
#265 = EDGE_CURVE ( 'NONE', #297, #98, #248, .T. ) ;
#266 = DIRECTION ( 'NONE',  ( -1.000000000000000000, 0.000000000000000000, 0.000000000000000000 ) ) ;
#267 = AXIS2_PLACEMENT_3D ( 'NONE', #162, #309, #219 ) ;
#268 = ORIENTED_EDGE ( 'NONE', *, *, #254, .F. ) ;
#269 = FACE_BOUND ( 'NONE', #206, .T. ) ;
#270 = ORIENTED_EDGE ( 'NONE', *, *, #170, .F. ) ;
#271 = CARTESIAN_POINT ( 'NONE',  ( 5.474171192188669327E-14, 0.7500000000000000000, -164.5000000000000000 ) ) ;
#272 = EDGE_CURVE ( 'NONE', #183, #149, #243, .T. ) ;
#273 = AXIS2_PLACEMENT_3D ( 'NONE', #88, #63, #236 ) ;
#274 = FILL_AREA_STYLE ('',( #276 ) ) ;
#275 = EDGE_CURVE ( 'NONE', #45, #93, #214, .T. ) ;
#276 = FILL_AREA_STYLE_COLOUR ( '', #357 ) ;
#277 = ORIENTED_EDGE ( 'NONE', *, *, #331, .T. ) ;
#278 = DIRECTION ( 'NONE',  ( 0.000000000000000000, 0.000000000000000000, 1.000000000000000000 ) ) ;
#279 = ORIENTED_EDGE ( 'NONE', *, *, #124, .F. ) ;
#280 = MANIFOLD_SOLID_BREP ( 'Ø4.0 (4) Durchmesser Bohrung1', #36 ) ;
#281 = AXIS2_PLACEMENT_3D ( 'NONE', #32, #142, #255 ) ;
#282 = VECTOR ( 'NONE', #334, 1000.000000000000000 ) ;
#283 = CARTESIAN_POINT ( 'NONE',  ( -230.0000000000000284, 0.7500000000000000000, 170.0000000000000853 ) ) ;
#284 = ORIENTED_EDGE ( 'NONE', *, *, #115, .T. ) ;
#285 =( NAMED_UNIT ( * ) SI_UNIT ( $, .STERADIAN. ) SOLID_ANGLE_UNIT ( ) );
#286 = PLANE ( 'NONE',  #188 ) ;
#287 = UNCERTAINTY_MEASURE_WITH_UNIT (LENGTH_MEASURE( 1.000000000000000082E-05 ), #23, 'distance_accuracy_value', 'NONE');
#288 = VECTOR ( 'NONE', #321, 1000.000000000000000 ) ;
#289 = ORIENTED_EDGE ( 'NONE', *, *, #14, .F. ) ;
#290 =( LENGTH_UNIT ( ) NAMED_UNIT ( * ) SI_UNIT ( .MILLI., .METRE. ) );
#291 =( NAMED_UNIT ( * ) SI_UNIT ( $, .STERADIAN. ) SOLID_ANGLE_UNIT ( ) );
#292 = CARTESIAN_POINT ( 'NONE',  ( -230.0000000000000284, -0.7500000000000000000, -169.9999999999999432 ) ) ;
#293 = AXIS2_PLACEMENT_3D ( 'NONE', #363, #34, #27 ) ;
#294 = CIRCLE ( 'NONE', #322, 2.000000000000001776 ) ;
#295 = CARTESIAN_POINT ( 'NONE',  ( 229.9999999999999716, 0.7500000000000000000, 170.0000000000000853 ) ) ;
#296 = CARTESIAN_POINT ( 'NONE',  ( 5.474171192188669327E-14, -0.7500000000000013323, 160.5000000000000000 ) ) ;
#297 = VERTEX_POINT ( 'NONE', #76 ) ;
#298 = CYLINDRICAL_SURFACE ( 'NONE', #70, 2.000000000000001776 ) ;
#299 = VECTOR ( 'NONE', #301, 1000.000000000000000 ) ;
#300 = EDGE_LOOP ( 'NONE', ( #310, #122, #51, #19 ) ) ;
#301 = DIRECTION ( 'NONE',  ( 1.000000000000000000, 0.000000000000000000, 0.000000000000000000 ) ) ;
#302 = EDGE_CURVE ( 'NONE', #297, #323, #303, .T. ) ;
#303 = LINE ( 'NONE', #104, #168 ) ;
#304 = ADVANCED_FACE ( 'NONE', ( #128 ), #48, .F. ) ;
#305 = LINE ( 'NONE', #50, #101 ) ;
#306 = ORIENTED_EDGE ( 'NONE', *, *, #117, .F. ) ;
#307 = PRODUCT_DEFINITION ( 'UNKNOWN', '', #171, #361 ) ;
#308 = EDGE_LOOP ( 'NONE', ( #306, #237, #312, #218 ) ) ;
#309 = DIRECTION ( 'NONE',  ( -0.000000000000000000, 1.000000000000000000, -0.000000000000000000 ) ) ;
#310 = ORIENTED_EDGE ( 'NONE', *, *, #275, .T. ) ;
#311 =( GEOMETRIC_REPRESENTATION_CONTEXT ( 3 ) GLOBAL_UNCERTAINTY_ASSIGNED_CONTEXT ( ( #287 ) ) GLOBAL_UNIT_ASSIGNED_CONTEXT ( ( #23, #71, #157 ) ) REPRESENTATION_CONTEXT ( 'NONE', 'WORKASPACE' ) );
#312 = ORIENTED_EDGE ( 'NONE', *, *, #14, .T. ) ;
#313 = PRESENTATION_STYLE_ASSIGNMENT (( #83 ) ) ;
#314 = CARTESIAN_POINT ( 'NONE',  ( 5.449678256205722297E-14, 0.7499999999999998890, 162.5000000000000000 ) ) ;
#315 = AXIS2_PLACEMENT_3D ( 'NONE', #314, #30, #339 ) ;
#316 = FACE_OUTER_BOUND ( 'NONE', #246, .T. ) ;
#317 = FILL_AREA_STYLE ('',( #59 ) ) ;
#318 = DIRECTION ( 'NONE',  ( 0.000000000000000000, -0.000000000000000000, -1.000000000000000000 ) ) ;
#319 = ORIENTED_EDGE ( 'NONE', *, *, #95, .T. ) ;
#320 = VECTOR ( 'NONE', #2, 1000.000000000000000 ) ;
#321 = DIRECTION ( 'NONE',  ( -0.000000000000000000, 1.000000000000000000, -0.000000000000000000 ) ) ;
#322 = AXIS2_PLACEMENT_3D ( 'NONE', #262, #208, #182 ) ;
#323 = VERTEX_POINT ( 'NONE', #134 ) ;
#324 = LINE ( 'NONE', #65, #299 ) ;
#325 = DIRECTION ( 'NONE',  ( -0.000000000000000000, 1.000000000000000000, -0.000000000000000000 ) ) ;
#326 = ORIENTED_EDGE ( 'NONE', *, *, #66, .T. ) ;
#327 = EDGE_CURVE ( 'NONE', #336, #24, #305, .T. ) ;
#328 = DIRECTION ( 'NONE',  ( 0.000000000000000000, 0.000000000000000000, 1.000000000000000000 ) ) ;
#329 = VECTOR ( 'NONE', #354, 1000.000000000000000 ) ;
#330 = ORIENTED_EDGE ( 'NONE', *, *, #327, .F. ) ;
#331 = EDGE_CURVE ( 'NONE', #93, #133, #245, .T. ) ;
#332 = DIRECTION ( 'NONE',  ( -0.000000000000000000, -1.000000000000000000, -0.000000000000000000 ) ) ;
#333 = ORIENTED_EDGE ( 'NONE', *, *, #161, .T. ) ;
#334 = DIRECTION ( 'NONE',  ( -0.000000000000000000, -1.000000000000000000, -0.000000000000000000 ) ) ;
#335 = ORIENTED_EDGE ( 'NONE', *, *, #253, .T. ) ;
#336 = VERTEX_POINT ( 'NONE', #283 ) ;
#337 = VECTOR ( 'NONE', #116, 1000.000000000000000 ) ;
#338 = FACE_OUTER_BOUND ( 'NONE', #221, .T. ) ;
#339 = DIRECTION ( 'NONE',  ( 0.000000000000000000, 0.000000000000000000, 1.000000000000000000 ) ) ;
#340 = CARTESIAN_POINT ( 'NONE',  ( 5.474171192188669327E-14, 0.7499999999999998890, 160.5000000000000000 ) ) ;
#341 = CARTESIAN_POINT ( 'NONE',  ( 5.449678256205722297E-14, 0.7500000000000000000, 162.5000000000000000 ) ) ;
#342 = LINE ( 'NONE', #55, #137 ) ;
#343 = CARTESIAN_POINT ( 'NONE',  ( 5.449678256205722297E-14, -0.7500000000000013323, -160.5000000000000000 ) ) ;
#344 = VECTOR ( 'NONE', #348, 1000.000000000000000 ) ;
#345 = DIRECTION ( 'NONE',  ( -0.000000000000000000, 1.000000000000000000, -0.000000000000000000 ) ) ;
#346 = CARTESIAN_POINT ( 'NONE',  ( 229.9999999999999716, 0.7500000000000000000, -169.9999999999999432 ) ) ;
#347 = VERTEX_POINT ( 'NONE', #217 ) ;
#348 = DIRECTION ( 'NONE',  ( -0.000000000000000000, -1.000000000000000000, -0.000000000000000000 ) ) ;
#349 = PRODUCT ( 'INGUN_115943', 'INGUN_115943', '', ( #82 ) ) ;
#350 = ORIENTED_EDGE ( 'NONE', *, *, #272, .T. ) ;
#351 =( LENGTH_UNIT ( ) NAMED_UNIT ( * ) SI_UNIT ( .MILLI., .METRE. ) );
#352 = AXIS2_PLACEMENT_3D ( 'NONE', #177, #227, #224 ) ;
#353 = MECHANICAL_DESIGN_GEOMETRIC_PRESENTATION_REPRESENTATION (  '', ( #235 ), #62 ) ;
#354 = DIRECTION ( 'NONE',  ( -0.000000000000000000, -1.000000000000000000, -0.000000000000000000 ) ) ;
#355 = CARTESIAN_POINT ( 'NONE',  ( -230.0000000000000284, 0.7500000000000000000, -169.9999999999999432 ) ) ;
#356 = EDGE_LOOP ( 'NONE', ( #52, #21, #119, #78 ) ) ;
#357 = COLOUR_RGB ( '',0.7529411764705882248, 1.000000000000000000, 0.7529411764705882248 ) ;
#358 = EDGE_LOOP ( 'NONE', ( #350, #326, #211, #284 ) ) ;
#359 = SURFACE_SIDE_STYLE ('',( #79 ) ) ;
#360 = EDGE_LOOP ( 'NONE', ( #163, #140, #131, #230 ) ) ;
#361 = PRODUCT_DEFINITION_CONTEXT ( 'detailed design', #146, 'design' ) ;
#362 = APPLICATION_PROTOCOL_DEFINITION ( 'draft international standard', 'automotive_design', 1998, #146 ) ;
#363 = CARTESIAN_POINT ( 'NONE',  ( 229.9999999999999716, -0.7500000000000000000, -169.9999999999999432 ) ) ;
#364 = AXIS2_PLACEMENT_3D ( 'NONE', #39, #180, #46 ) ;
#365 = LINE ( 'NONE', #258, #320 ) ;
ENDSEC;
END-ISO-10303-21;
