ISO-10303-21;
HEADER;
FILE_DESCRIPTION (( 'STEP AP214' ),
    '1' );
FILE_NAME ('INGUN_115941.STEP',
    '2024-03-11T08:40:19',
    ( '' ),
    ( '' ),
    'SwSTEP 2.0',
    'SolidWorks 2021',
    '' );
FILE_SCHEMA (( 'AUTOMOTIVE_DESIGN' ));
ENDSEC;

DATA;
#1 = DIRECTION ( 'NONE',  ( -1.000000000000000000, -0.000000000000000000, -0.000000000000000000 ) ) ;
#2 = ORIENTED_EDGE ( 'NONE', *, *, #228, .T. ) ;
#3 = EDGE_CURVE ( 'NONE', #183, #63, #325, .T. ) ;
#4 = DIRECTION ( 'NONE',  ( 0.000000000000000000, 0.000000000000000000, 1.000000000000000000 ) ) ;
#5 = VERTEX_POINT ( 'NONE', #109 ) ;
#6 = PLANE ( 'NONE',  #278 ) ;
#7 = CARTESIAN_POINT ( 'NONE',  ( 2.779948234064491650E-14, -0.7500000000000013323, 105.5000000000000142 ) ) ;
#8 = EDGE_CURVE ( 'NONE', #150, #262, #43, .T. ) ;
#9 = PRODUCT_DEFINITION_FORMATION_WITH_SPECIFIED_SOURCE ( 'ANY', '', #87, .NOT_KNOWN. ) ;
#10 = ORIENTED_EDGE ( 'NONE', *, *, #202, .F. ) ;
#11 = ORIENTED_EDGE ( 'NONE', *, *, #243, .F. ) ;
#12 = UNCERTAINTY_MEASURE_WITH_UNIT (LENGTH_MEASURE( 1.000000000000000082E-05 ), #132, 'distance_accuracy_value', 'NONE');
#13 = SURFACE_STYLE_FILL_AREA ( #271 ) ;
#14 = EDGE_CURVE ( 'NONE', #37, #48, #259, .T. ) ;
#15 = AXIS2_PLACEMENT_3D ( 'NONE', #227, #331, #358 ) ;
#16 = ORIENTED_EDGE ( 'NONE', *, *, #55, .F. ) ;
#17 = DIRECTION ( 'NONE',  ( 0.000000000000000000, -1.000000000000000000, 0.000000000000000000 ) ) ;
#18 = ORIENTED_EDGE ( 'NONE', *, *, #243, .T. ) ;
#19 = FACE_OUTER_BOUND ( 'NONE', #194, .T. ) ;
#20 = CARTESIAN_POINT ( 'NONE',  ( -180.0000000000000000, 0.7500000000000000000, 114.9999999999999858 ) ) ;
#21 = AXIS2_PLACEMENT_3D ( 'NONE', #92, #342, #156 ) ;
#22 = CARTESIAN_POINT ( 'NONE',  ( 2.755455298081544620E-14, 0.7500000000000000000, -107.5000000000000000 ) ) ;
#23 = FACE_BOUND ( 'NONE', #125, .T. ) ;
#24 = DIRECTION ( 'NONE',  ( 0.000000000000000000, 0.000000000000000000, 1.000000000000000000 ) ) ;
#25 = CIRCLE ( 'NONE', #47, 1.999999999999988010 ) ;
#26 = CARTESIAN_POINT ( 'NONE',  ( 2.755455298081544620E-14, 0.7499999999999998890, -107.5000000000000000 ) ) ;
#27 = DIRECTION ( 'NONE',  ( 0.000000000000000000, 0.000000000000000000, 1.000000000000000000 ) ) ;
#28 = ADVANCED_FACE ( 'NONE', ( #191 ), #138, .F. ) ;
#29 = DIRECTION ( 'NONE',  ( -0.000000000000000000, 1.000000000000000000, -0.000000000000000000 ) ) ;
#30 = VERTEX_POINT ( 'NONE', #301 ) ;
#31 = CIRCLE ( 'NONE', #299, 1.999999999999988010 ) ;
#32 = AXIS2_PLACEMENT_3D ( 'NONE', #131, #240, #346 ) ;
#33 = CARTESIAN_POINT ( 'NONE',  ( 2.755455298081544620E-14, -0.7500000000000013323, 109.4999999999999858 ) ) ;
#34 = ORIENTED_EDGE ( 'NONE', *, *, #352, .T. ) ;
#35 = MANIFOLD_SOLID_BREP ( 'Ø4.0 (4) Durchmesser Bohrung1', #283 ) ;
#36 = DIRECTION ( 'NONE',  ( -0.000000000000000000, -1.000000000000000000, -0.000000000000000000 ) ) ;
#37 = VERTEX_POINT ( 'NONE', #88 ) ;
#38 = CARTESIAN_POINT ( 'NONE',  ( 179.9999999999998863, -0.7500000000000000000, -115.0000000000000142 ) ) ;
#39 = VERTEX_POINT ( 'NONE', #53 ) ;
#40 = AXIS2_PLACEMENT_3D ( 'NONE', #20, #90, #114 ) ;
#41 = ORIENTED_EDGE ( 'NONE', *, *, #8, .T. ) ;
#42 =( NAMED_UNIT ( * ) SI_UNIT ( $, .STERADIAN. ) SOLID_ANGLE_UNIT ( ) );
#43 = LINE ( 'NONE', #72, #146 ) ;
#44 = CARTESIAN_POINT ( 'NONE',  ( 2.755455298081544620E-14, 0.7500000000000000000, -105.5000000000000142 ) ) ;
#45 = ORIENTED_EDGE ( 'NONE', *, *, #224, .F. ) ;
#46 = LINE ( 'NONE', #219, #323 ) ;
#47 = AXIS2_PLACEMENT_3D ( 'NONE', #282, #197, #24 ) ;
#48 = VERTEX_POINT ( 'NONE', #165 ) ;
#49 = DIRECTION ( 'NONE',  ( 0.000000000000000000, 0.000000000000000000, 1.000000000000000000 ) ) ;
#50 = ADVANCED_FACE ( 'NONE', ( #200 ), #56, .F. ) ;
#51 = EDGE_CURVE ( 'NONE', #63, #241, #52, .T. ) ;
#52 = LINE ( 'NONE', #58, #249 ) ;
#53 = CARTESIAN_POINT ( 'NONE',  ( 2.755455298081544620E-14, -0.7500000000000013323, -105.5000000000000142 ) ) ;
#54 = VECTOR ( 'NONE', #62, 1000.000000000000000 ) ;
#55 = EDGE_CURVE ( 'NONE', #30, #39, #25, .T. ) ;
#56 = CYLINDRICAL_SURFACE ( 'NONE', #333, 1.999999999999988010 ) ;
#57 = PRODUCT_CONTEXT ( 'NONE', #215, 'mechanical' ) ;
#58 = CARTESIAN_POINT ( 'NONE',  ( 180.0000000000000000, 0.7500000000000000000, -115.0000000000000142 ) ) ;
#59 = CARTESIAN_POINT ( 'NONE',  ( 180.0000000000000000, -0.7500000000000000000, 114.9999999999999858 ) ) ;
#60 = DIRECTION ( 'NONE',  ( -0.000000000000000000, 1.000000000000000000, -0.000000000000000000 ) ) ;
#61 = ORIENTED_EDGE ( 'NONE', *, *, #102, .T. ) ;
#62 = DIRECTION ( 'NONE',  ( -0.000000000000000000, 1.000000000000000000, -0.000000000000000000 ) ) ;
#63 = VERTEX_POINT ( 'NONE', #112 ) ;
#64 = DIRECTION ( 'NONE',  ( 1.000000000000000000, 0.000000000000000000, 0.000000000000000000 ) ) ;
#65 = ORIENTED_EDGE ( 'NONE', *, *, #51, .F. ) ;
#66 = AXIS2_PLACEMENT_3D ( 'NONE', #294, #230, #337 ) ;
#67 = LINE ( 'NONE', #205, #316 ) ;
#68 = ADVANCED_FACE ( 'NONE', ( #177 ), #332, .F. ) ;
#69 = VERTEX_POINT ( 'NONE', #250 ) ;
#70 = ORIENTED_EDGE ( 'NONE', *, *, #8, .F. ) ;
#71 =( NAMED_UNIT ( * ) PLANE_ANGLE_UNIT ( ) SI_UNIT ( $, .RADIAN. ) );
#72 = CARTESIAN_POINT ( 'NONE',  ( -180.0000000000000000, -0.7500000000000000000, 114.9999999999999858 ) ) ;
#73 = UNCERTAINTY_MEASURE_WITH_UNIT (LENGTH_MEASURE( 1.000000000000000082E-05 ), #106, 'distance_accuracy_value', 'NONE');
#74 =( GEOMETRIC_REPRESENTATION_CONTEXT ( 3 ) GLOBAL_UNCERTAINTY_ASSIGNED_CONTEXT ( ( #73 ) ) GLOBAL_UNIT_ASSIGNED_CONTEXT ( ( #106, #71, #348 ) ) REPRESENTATION_CONTEXT ( 'NONE', 'WORKASPACE' ) );
#75 = FILL_AREA_STYLE ('',( #321 ) ) ;
#76 = DIRECTION ( 'NONE',  ( -0.000000000000000000, 1.000000000000000000, -0.000000000000000000 ) ) ;
#77 = ADVANCED_FACE ( 'NONE', ( #226, #23, #145 ), #175, .F. ) ;
#78 = SURFACE_STYLE_FILL_AREA ( #75 ) ;
#79 = VERTEX_POINT ( 'NONE', #144 ) ;
#80 = EDGE_LOOP ( 'NONE', ( #83, #65, #256, #341 ) ) ;
#81 = PRODUCT_RELATED_PRODUCT_CATEGORY ( 'part', '', ( #87 ) ) ;
#82 = PRESENTATION_LAYER_ASSIGNMENT (  '', '', ( #239 ) ) ;
#83 = ORIENTED_EDGE ( 'NONE', *, *, #309, .T. ) ;
#84 = EDGE_CURVE ( 'NONE', #241, #69, #172, .T. ) ;
#85 = LINE ( 'NONE', #128, #186 ) ;
#86 = PLANE ( 'NONE',  #40 ) ;
#87 = PRODUCT ( 'INGUN_115941', 'INGUN_115941', '', ( #57 ) ) ;
#88 = CARTESIAN_POINT ( 'NONE',  ( 2.755455298081544620E-14, 0.7499999999999998890, -105.5000000000000142 ) ) ;
#89 = VECTOR ( 'NONE', #137, 1000.000000000000000 ) ;
#90 = DIRECTION ( 'NONE',  ( 0.000000000000000000, 0.000000000000000000, -1.000000000000000000 ) ) ;
#91 = FACE_OUTER_BOUND ( 'NONE', #127, .T. ) ;
#92 = CARTESIAN_POINT ( 'NONE',  ( 180.0000000000000000, 0.7500000000000000000, 114.9999999999999858 ) ) ;
#93 = AXIS2_PLACEMENT_3D ( 'NONE', #22, #336, #139 ) ;
#94 = DIRECTION ( 'NONE',  ( 0.000000000000000000, 0.000000000000000000, 1.000000000000000000 ) ) ;
#95 = ORIENTED_EDGE ( 'NONE', *, *, #289, .T. ) ;
#96 = FACE_OUTER_BOUND ( 'NONE', #188, .T. ) ;
#97 = FILL_AREA_STYLE ('',( #126 ) ) ;
#98 = AXIS2_PLACEMENT_3D ( 'NONE', #26, #291, #180 ) ;
#99 = LINE ( 'NONE', #119, #130 ) ;
#100 = DIRECTION ( 'NONE',  ( -0.000000000000000000, 1.000000000000000000, -0.000000000000000000 ) ) ;
#101 = ORIENTED_EDGE ( 'NONE', *, *, #292, .F. ) ;
#102 = EDGE_CURVE ( 'NONE', #5, #150, #225, .T. ) ;
#103 = CARTESIAN_POINT ( 'NONE',  ( 2.755455298081544620E-14, 0.7499999999999998890, -107.5000000000000000 ) ) ;
#104 = PRODUCT_DEFINITION_CONTEXT ( 'detailed design', #198, 'design' ) ;
#105 = VECTOR ( 'NONE', #335, 1000.000000000000000 ) ;
#106 =( LENGTH_UNIT ( ) NAMED_UNIT ( * ) SI_UNIT ( .MILLI., .METRE. ) );
#107 = ORIENTED_EDGE ( 'NONE', *, *, #202, .T. ) ;
#108 = LINE ( 'NONE', #44, #89 ) ;
#109 = CARTESIAN_POINT ( 'NONE',  ( -180.0000000000000000, 0.7500000000000000000, 114.9999999999999858 ) ) ;
#110 = ORIENTED_EDGE ( 'NONE', *, *, #201, .T. ) ;
#111 = AXIS2_PLACEMENT_3D ( 'NONE', #234, #286, #94 ) ;
#112 = CARTESIAN_POINT ( 'NONE',  ( 180.0000000000000000, 0.7500000000000000000, -115.0000000000000142 ) ) ;
#113 = CARTESIAN_POINT ( 'NONE',  ( -180.0000000000000000, 0.7500000000000000000, 114.9999999999999858 ) ) ;
#114 = DIRECTION ( 'NONE',  ( -1.000000000000000000, 0.000000000000000000, -0.000000000000000000 ) ) ;
#115 = VECTOR ( 'NONE', #64, 1000.000000000000000 ) ;
#116 =( GEOMETRIC_REPRESENTATION_CONTEXT ( 3 ) GLOBAL_UNCERTAINTY_ASSIGNED_CONTEXT ( ( #300 ) ) GLOBAL_UNIT_ASSIGNED_CONTEXT ( ( #169, #162, #42 ) ) REPRESENTATION_CONTEXT ( 'NONE', 'WORKASPACE' ) );
#117 = DIRECTION ( 'NONE',  ( 1.000000000000000000, 0.000000000000000000, -0.000000000000000000 ) ) ;
#118 = ADVANCED_FACE ( 'NONE', ( #276 ), #143, .F. ) ;
#119 = CARTESIAN_POINT ( 'NONE',  ( 180.0000000000000000, 0.7500000000000000000, 114.9999999999999858 ) ) ;
#120 = ORIENTED_EDGE ( 'NONE', *, *, #306, .T. ) ;
#121 = CARTESIAN_POINT ( 'NONE',  ( 2.755455298081544620E-14, 0.7500000000000000000, 109.4999999999999858 ) ) ;
#122 = ORIENTED_EDGE ( 'NONE', *, *, #212, .F. ) ;
#123 = AXIS2_PLACEMENT_3D ( 'NONE', #247, #220, #159 ) ;
#124 = DIRECTION ( 'NONE',  ( -0.000000000000000000, 1.000000000000000000, -0.000000000000000000 ) ) ;
#125 = EDGE_LOOP ( 'NONE', ( #122, #45 ) ) ;
#126 = FILL_AREA_STYLE_COLOUR ( '', #233 ) ;
#127 = EDGE_LOOP ( 'NONE', ( #41, #152, #101, #61 ) ) ;
#128 = CARTESIAN_POINT ( 'NONE',  ( -180.0000000000000000, 0.7500000000000000000, -115.0000000000000142 ) ) ;
#129 = ORIENTED_EDGE ( 'NONE', *, *, #201, .F. ) ;
#130 = VECTOR ( 'NONE', #36, 1000.000000000000000 ) ;
#131 = CARTESIAN_POINT ( 'NONE',  ( 0.000000000000000000, 0.000000000000000000, 0.000000000000000000 ) ) ;
#132 =( LENGTH_UNIT ( ) NAMED_UNIT ( * ) SI_UNIT ( .MILLI., .METRE. ) );
#133 = ORIENTED_EDGE ( 'NONE', *, *, #84, .T. ) ;
#134 = SURFACE_SIDE_STYLE ('',( #13 ) ) ;
#135 =( LENGTH_UNIT ( ) NAMED_UNIT ( * ) SI_UNIT ( .MILLI., .METRE. ) );
#136 = ORIENTED_EDGE ( 'NONE', *, *, #289, .F. ) ;
#137 = DIRECTION ( 'NONE',  ( -0.000000000000000000, 1.000000000000000000, -0.000000000000000000 ) ) ;
#138 = CYLINDRICAL_SURFACE ( 'NONE', #123, 1.999999999999988010 ) ;
#139 = DIRECTION ( 'NONE',  ( 0.000000000000000000, 0.000000000000000000, 1.000000000000000000 ) ) ;
#140 = FACE_OUTER_BOUND ( 'NONE', #303, .T. ) ;
#141 = MECHANICAL_DESIGN_GEOMETRIC_PRESENTATION_REPRESENTATION (  '', ( #334 ), #274 ) ;
#142 = ADVANCED_FACE ( 'NONE', ( #91 ), #86, .F. ) ;
#143 = CYLINDRICAL_SURFACE ( 'NONE', #93, 1.999999999999988010 ) ;
#144 = CARTESIAN_POINT ( 'NONE',  ( 2.755455298081544620E-14, 0.7499999999999998890, 109.4999999999999858 ) ) ;
#145 = FACE_OUTER_BOUND ( 'NONE', #350, .T. ) ;
#146 = VECTOR ( 'NONE', #189, 1000.000000000000000 ) ;
#147 = ADVANCED_FACE ( 'NONE', ( #140 ), #199, .F. ) ;
#148 = FACE_OUTER_BOUND ( 'NONE', #80, .T. ) ;
#149 = CARTESIAN_POINT ( 'NONE',  ( 2.779948234064491650E-14, 0.7500000000000000000, -109.4999999999999858 ) ) ;
#150 = VERTEX_POINT ( 'NONE', #171 ) ;
#151 = LINE ( 'NONE', #149, #211 ) ;
#152 = ORIENTED_EDGE ( 'NONE', *, *, #261, .F. ) ;
#153 = ADVANCED_BREP_SHAPE_REPRESENTATION ( 'INGUN_115941', ( #35, #32 ), #116 ) ;
#154 = COLOUR_RGB ( '',0.7529411764705882248, 1.000000000000000000, 0.7529411764705882248 ) ;
#155 = ADVANCED_FACE ( 'NONE', ( #19 ), #304, .F. ) ;
#156 = DIRECTION ( 'NONE',  ( 0.000000000000000000, 0.000000000000000000, 1.000000000000000000 ) ) ;
#157 = ORIENTED_EDGE ( 'NONE', *, *, #352, .F. ) ;
#158 = DIRECTION ( 'NONE',  ( -0.000000000000000000, -0.000000000000000000, 1.000000000000000000 ) ) ;
#159 = DIRECTION ( 'NONE',  ( 0.000000000000000000, 0.000000000000000000, 1.000000000000000000 ) ) ;
#160 = PRODUCT_DEFINITION ( 'UNKNOWN', '', #9, #104 ) ;
#161 = CIRCLE ( 'NONE', #343, 1.999999999999988010 ) ;
#162 =( NAMED_UNIT ( * ) PLANE_ANGLE_UNIT ( ) SI_UNIT ( $, .RADIAN. ) );
#163 = ORIENTED_EDGE ( 'NONE', *, *, #319, .F. ) ;
#164 =( NAMED_UNIT ( * ) PLANE_ANGLE_UNIT ( ) SI_UNIT ( $, .RADIAN. ) );
#165 = CARTESIAN_POINT ( 'NONE',  ( 2.779948234064491650E-14, 0.7499999999999998890, -109.4999999999999858 ) ) ;
#166 = PRESENTATION_STYLE_ASSIGNMENT (( #265 ) ) ;
#167 = ORIENTED_EDGE ( 'NONE', *, *, #270, .F. ) ;
#168 = VECTOR ( 'NONE', #361, 1000.000000000000000 ) ;
#169 =( LENGTH_UNIT ( ) NAMED_UNIT ( * ) SI_UNIT ( .MILLI., .METRE. ) );
#170 = ORIENTED_EDGE ( 'NONE', *, *, #55, .T. ) ;
#171 = CARTESIAN_POINT ( 'NONE',  ( -180.0000000000000000, -0.7500000000000000000, 114.9999999999999858 ) ) ;
#172 = LINE ( 'NONE', #279, #105 ) ;
#173 = EDGE_CURVE ( 'NONE', #63, #185, #85, .T. ) ;
#174 = MECHANICAL_DESIGN_GEOMETRIC_PRESENTATION_REPRESENTATION (  '', ( #239 ), #74 ) ;
#175 = PLANE ( 'NONE',  #15 ) ;
#176 = CARTESIAN_POINT ( 'NONE',  ( -180.0000000000000000, 0.7500000000000000000, -115.0000000000000142 ) ) ;
#177 = FACE_OUTER_BOUND ( 'NONE', #297, .T. ) ;
#178 = MECHANICAL_DESIGN_GEOMETRIC_PRESENTATION_REPRESENTATION (  '', ( #290 ), #267 ) ;
#179 = PRESENTATION_LAYER_ASSIGNMENT (  '', '', ( #334 ) ) ;
#180 = DIRECTION ( 'NONE',  ( 0.000000000000000000, 0.000000000000000000, 1.000000000000000000 ) ) ;
#181 = ORIENTED_EDGE ( 'NONE', *, *, #292, .T. ) ;
#182 = LINE ( 'NONE', #209, #115 ) ;
#183 = VERTEX_POINT ( 'NONE', #317 ) ;
#184 = DIRECTION ( 'NONE',  ( -0.000000000000000000, -0.000000000000000000, 1.000000000000000000 ) ) ;
#185 = VERTEX_POINT ( 'NONE', #314 ) ;
#186 = VECTOR ( 'NONE', #1, 1000.000000000000000 ) ;
#187 = LINE ( 'NONE', #311, #307 ) ;
#188 = EDGE_LOOP ( 'NONE', ( #235, #70, #11, #315 ) ) ;
#189 = DIRECTION ( 'NONE',  ( 1.000000000000000000, 0.000000000000000000, 0.000000000000000000 ) ) ;
#190 = SURFACE_SIDE_STYLE ('',( #78 ) ) ;
#191 = FACE_OUTER_BOUND ( 'NONE', #192, .T. ) ;
#192 = EDGE_LOOP ( 'NONE', ( #216, #354, #34, #347 ) ) ;
#193 =( NAMED_UNIT ( * ) SI_UNIT ( $, .STERADIAN. ) SOLID_ANGLE_UNIT ( ) );
#194 = EDGE_LOOP ( 'NONE', ( #18, #356, #10, #2 ) ) ;
#195 = VECTOR ( 'NONE', #287, 1000.000000000000000 ) ;
#196 = FILL_AREA_STYLE_COLOUR ( '', #154 ) ;
#197 = DIRECTION ( 'NONE',  ( -0.000000000000000000, 1.000000000000000000, -0.000000000000000000 ) ) ;
#198 = APPLICATION_CONTEXT ( 'automotive_design' ) ;
#199 = CYLINDRICAL_SURFACE ( 'NONE', #329, 1.999999999999988010 ) ;
#200 = FACE_OUTER_BOUND ( 'NONE', #218, .T. ) ;
#201 = EDGE_CURVE ( 'NONE', #298, #79, #255, .T. ) ;
#202 = EDGE_CURVE ( 'NONE', #185, #5, #364, .T. ) ;
#203 = DIRECTION ( 'NONE',  ( 0.000000000000000000, 0.000000000000000000, -1.000000000000000000 ) ) ;
#204 = DIRECTION ( 'NONE',  ( -0.000000000000000000, 1.000000000000000000, -0.000000000000000000 ) ) ;
#205 = CARTESIAN_POINT ( 'NONE',  ( -180.0000000000000000, -0.7500000000000000000, 114.9999999999999858 ) ) ;
#206 = CIRCLE ( 'NONE', #359, 1.999999999999988010 ) ;
#207 = CARTESIAN_POINT ( 'NONE',  ( 2.755455298081544620E-14, -0.7500000000000013323, 107.5000000000000000 ) ) ;
#208 = ORIENTED_EDGE ( 'NONE', *, *, #345, .T. ) ;
#209 = CARTESIAN_POINT ( 'NONE',  ( -180.0000000000000000, 0.7500000000000000000, 114.9999999999999858 ) ) ;
#210 = SURFACE_STYLE_FILL_AREA ( #97 ) ;
#211 = VECTOR ( 'NONE', #124, 1000.000000000000000 ) ;
#212 = EDGE_CURVE ( 'NONE', #79, #288, #273, .T. ) ;
#213 = ORIENTED_EDGE ( 'NONE', *, *, #3, .T. ) ;
#214 = ORIENTED_EDGE ( 'NONE', *, *, #173, .T. ) ;
#215 = APPLICATION_CONTEXT ( 'automotive_design' ) ;
#216 = ORIENTED_EDGE ( 'NONE', *, *, #306, .F. ) ;
#217 = AXIS2_PLACEMENT_3D ( 'NONE', #113, #330, #203 ) ;
#218 = EDGE_LOOP ( 'NONE', ( #231, #136, #110, #295 ) ) ;
#219 = CARTESIAN_POINT ( 'NONE',  ( 2.779948234064491650E-14, 0.7500000000000000000, 105.5000000000000142 ) ) ;
#220 = DIRECTION ( 'NONE',  ( -0.000000000000000000, 1.000000000000000000, -0.000000000000000000 ) ) ;
#221 = APPLICATION_PROTOCOL_DEFINITION ( 'draft international standard', 'automotive_design', 1998, #198 ) ;
#222 = PRESENTATION_STYLE_ASSIGNMENT (( #327 ) ) ;
#223 = AXIS2_PLACEMENT_3D ( 'NONE', #103, #76, #275 ) ;
#224 = EDGE_CURVE ( 'NONE', #288, #79, #206, .T. ) ;
#225 = LINE ( 'NONE', #362, #168 ) ;
#226 = FACE_BOUND ( 'NONE', #349, .T. ) ;
#227 = CARTESIAN_POINT ( 'NONE',  ( 179.9999999999998863, 0.7500000000000000000, -115.0000000000000142 ) ) ;
#228 = EDGE_CURVE ( 'NONE', #185, #69, #187, .T. ) ;
#229 = PRESENTATION_LAYER_ASSIGNMENT (  '', '', ( #290 ) ) ;
#230 = DIRECTION ( 'NONE',  ( -0.000000000000000000, 1.000000000000000000, -0.000000000000000000 ) ) ;
#231 = ORIENTED_EDGE ( 'NONE', *, *, #345, .F. ) ;
#232 = DIRECTION ( 'NONE',  ( -0.000000000000000000, -1.000000000000000000, -0.000000000000000000 ) ) ;
#233 = COLOUR_RGB ( '',0.9882352941176471006, 0.7372549019607843590, 0.5176470588235293491 ) ;
#234 = CARTESIAN_POINT ( 'NONE',  ( 2.755455298081544620E-14, 0.7499999999999998890, 107.5000000000000000 ) ) ;
#235 = ORIENTED_EDGE ( 'NONE', *, *, #309, .F. ) ;
#236 = CARTESIAN_POINT ( 'NONE',  ( 180.0000000000000000, -0.7500000000000000000, -115.0000000000000142 ) ) ;
#237 = CARTESIAN_POINT ( 'NONE',  ( -180.0000000000000000, 0.7500000000000000000, 114.9999999999999858 ) ) ;
#238 = EDGE_LOOP ( 'NONE', ( #322, #170 ) ) ;
#239 = STYLED_ITEM ( 'NONE', ( #268 ), #326 ) ;
#240 = DIRECTION ( 'NONE',  ( 0.000000000000000000, 0.000000000000000000, 1.000000000000000000 ) ) ;
#241 = VERTEX_POINT ( 'NONE', #236 ) ;
#242 = UNCERTAINTY_MEASURE_WITH_UNIT (LENGTH_MEASURE( 1.000000000000000082E-05 ), #135, 'distance_accuracy_value', 'NONE');
#243 = EDGE_CURVE ( 'NONE', #69, #150, #67, .T. ) ;
#244 = VERTEX_POINT ( 'NONE', #7 ) ;
#245 = ORIENTED_EDGE ( 'NONE', *, *, #228, .F. ) ;
#246 = SURFACE_SIDE_STYLE ('',( #210 ) ) ;
#247 = CARTESIAN_POINT ( 'NONE',  ( 2.755455298081544620E-14, 0.7500000000000000000, -107.5000000000000000 ) ) ;
#248 = CARTESIAN_POINT ( 'NONE',  ( 2.755455298081544620E-14, 0.7500000000000000000, 107.5000000000000000 ) ) ;
#249 = VECTOR ( 'NONE', #360, 1000.000000000000000 ) ;
#250 = CARTESIAN_POINT ( 'NONE',  ( -180.0000000000000000, -0.7500000000000000000, -115.0000000000000142 ) ) ;
#251 = DIRECTION ( 'NONE',  ( -0.000000000000000000, 1.000000000000000000, -0.000000000000000000 ) ) ;
#252 =( NAMED_UNIT ( * ) PLANE_ANGLE_UNIT ( ) SI_UNIT ( $, .RADIAN. ) );
#253 = VECTOR ( 'NONE', #184, 1000.000000000000000 ) ;
#254 = CARTESIAN_POINT ( 'NONE',  ( 2.755455298081544620E-14, 0.7500000000000000000, 107.5000000000000000 ) ) ;
#255 = LINE ( 'NONE', #121, #54 ) ;
#256 = ORIENTED_EDGE ( 'NONE', *, *, #3, .F. ) ;
#257 = CARTESIAN_POINT ( 'NONE',  ( 180.0000000000000000, -0.7500000000000000000, 114.9999999999999858 ) ) ;
#258 = DIRECTION ( 'NONE',  ( 0.000000000000000000, 0.000000000000000000, 1.000000000000000000 ) ) ;
#259 = CIRCLE ( 'NONE', #223, 1.999999999999988010 ) ;
#260 = FACE_BOUND ( 'NONE', #269, .T. ) ;
#261 = EDGE_CURVE ( 'NONE', #183, #262, #99, .T. ) ;
#262 = VERTEX_POINT ( 'NONE', #59 ) ;
#263 = CARTESIAN_POINT ( 'NONE',  ( 2.755455298081544620E-14, 0.7499999999999998890, 107.5000000000000000 ) ) ;
#264 = EDGE_LOOP ( 'NONE', ( #16, #120, #318, #157 ) ) ;
#265 = SURFACE_STYLE_USAGE ( .BOTH. , #190 ) ;
#266 = ORIENTED_EDGE ( 'NONE', *, *, #173, .F. ) ;
#267 =( GEOMETRIC_REPRESENTATION_CONTEXT ( 3 ) GLOBAL_UNCERTAINTY_ASSIGNED_CONTEXT ( ( #12 ) ) GLOBAL_UNIT_ASSIGNED_CONTEXT ( ( #132, #252, #305 ) ) REPRESENTATION_CONTEXT ( 'NONE', 'WORKASPACE' ) );
#268 = PRESENTATION_STYLE_ASSIGNMENT (( #324 ) ) ;
#269 = EDGE_LOOP ( 'NONE', ( #95, #302 ) ) ;
#270 = EDGE_CURVE ( 'NONE', #48, #37, #310, .T. ) ;
#271 = FILL_AREA_STYLE ('',( #196 ) ) ;
#272 = DIRECTION ( 'NONE',  ( 0.000000000000000000, 0.000000000000000000, -1.000000000000000000 ) ) ;
#273 = CIRCLE ( 'NONE', #111, 1.999999999999988010 ) ;
#274 =( GEOMETRIC_REPRESENTATION_CONTEXT ( 3 ) GLOBAL_UNCERTAINTY_ASSIGNED_CONTEXT ( ( #242 ) ) GLOBAL_UNIT_ASSIGNED_CONTEXT ( ( #135, #164, #193 ) ) REPRESENTATION_CONTEXT ( 'NONE', 'WORKASPACE' ) );
#275 = DIRECTION ( 'NONE',  ( 0.000000000000000000, 0.000000000000000000, 1.000000000000000000 ) ) ;
#276 = FACE_OUTER_BOUND ( 'NONE', #264, .T. ) ;
#277 = DIRECTION ( 'NONE',  ( 0.000000000000000000, 0.000000000000000000, 1.000000000000000000 ) ) ;
#278 = AXIS2_PLACEMENT_3D ( 'NONE', #38, #17, #355 ) ;
#279 = CARTESIAN_POINT ( 'NONE',  ( -180.0000000000000000, -0.7500000000000000000, -115.0000000000000142 ) ) ;
#280 = EDGE_CURVE ( 'NONE', #39, #30, #363, .T. ) ;
#281 = DIRECTION ( 'NONE',  ( 0.000000000000000000, 0.000000000000000000, 1.000000000000000000 ) ) ;
#282 = CARTESIAN_POINT ( 'NONE',  ( 2.755455298081544620E-14, -0.7500000000000013323, -107.5000000000000000 ) ) ;
#283 = CLOSED_SHELL ( 'NONE', ( #118, #147, #285, #68, #155, #142, #77, #326, #50, #28 ) ) ;
#284 = DIRECTION ( 'NONE',  ( -0.000000000000000000, 1.000000000000000000, -0.000000000000000000 ) ) ;
#285 = ADVANCED_FACE ( 'NONE', ( #148 ), #339, .F. ) ;
#286 = DIRECTION ( 'NONE',  ( -0.000000000000000000, 1.000000000000000000, -0.000000000000000000 ) ) ;
#287 = DIRECTION ( 'NONE',  ( 0.000000000000000000, 0.000000000000000000, -1.000000000000000000 ) ) ;
#288 = VERTEX_POINT ( 'NONE', #344 ) ;
#289 = EDGE_CURVE ( 'NONE', #298, #244, #161, .T. ) ;
#290 = STYLED_ITEM ( 'NONE', ( #222 ), #35 ) ;
#291 = DIRECTION ( 'NONE',  ( -0.000000000000000000, 1.000000000000000000, -0.000000000000000000 ) ) ;
#292 = EDGE_CURVE ( 'NONE', #5, #183, #182, .T. ) ;
#293 = VECTOR ( 'NONE', #272, 1000.000000000000000 ) ;
#294 = CARTESIAN_POINT ( 'NONE',  ( 2.755455298081544620E-14, -0.7500000000000013323, -107.5000000000000000 ) ) ;
#295 = ORIENTED_EDGE ( 'NONE', *, *, #212, .T. ) ;
#296 = APPLICATION_PROTOCOL_DEFINITION ( 'draft international standard', 'automotive_design', 1998, #215 ) ;
#297 = EDGE_LOOP ( 'NONE', ( #133, #245, #266, #365 ) ) ;
#298 = VERTEX_POINT ( 'NONE', #33 ) ;
#299 = AXIS2_PLACEMENT_3D ( 'NONE', #207, #29, #258 ) ;
#300 = UNCERTAINTY_MEASURE_WITH_UNIT (LENGTH_MEASURE( 1.000000000000000082E-05 ), #169, 'distance_accuracy_value', 'NONE');
#301 = CARTESIAN_POINT ( 'NONE',  ( 2.779948234064491650E-14, -0.7500000000000013323, -109.4999999999999858 ) ) ;
#302 = ORIENTED_EDGE ( 'NONE', *, *, #319, .T. ) ;
#303 = EDGE_LOOP ( 'NONE', ( #163, #208, #338, #129 ) ) ;
#304 = PLANE ( 'NONE',  #217 ) ;
#305 =( NAMED_UNIT ( * ) SI_UNIT ( $, .STERADIAN. ) SOLID_ANGLE_UNIT ( ) );
#306 = EDGE_CURVE ( 'NONE', #30, #48, #151, .T. ) ;
#307 = VECTOR ( 'NONE', #232, 1000.000000000000000 ) ;
#308 = LINE ( 'NONE', #257, #195 ) ;
#309 = EDGE_CURVE ( 'NONE', #262, #241, #308, .T. ) ;
#310 = CIRCLE ( 'NONE', #98, 1.999999999999988010 ) ;
#311 = CARTESIAN_POINT ( 'NONE',  ( -180.0000000000000000, 0.7500000000000000000, -115.0000000000000142 ) ) ;
#312 = ORIENTED_EDGE ( 'NONE', *, *, #14, .F. ) ;
#313 = CARTESIAN_POINT ( 'NONE',  ( 2.755455298081544620E-14, -0.7500000000000013323, 107.5000000000000000 ) ) ;
#314 = CARTESIAN_POINT ( 'NONE',  ( -180.0000000000000000, 0.7500000000000000000, -115.0000000000000142 ) ) ;
#315 = ORIENTED_EDGE ( 'NONE', *, *, #84, .F. ) ;
#316 = VECTOR ( 'NONE', #158, 1000.000000000000000 ) ;
#317 = CARTESIAN_POINT ( 'NONE',  ( 180.0000000000000000, 0.7500000000000000000, 114.9999999999999858 ) ) ;
#318 = ORIENTED_EDGE ( 'NONE', *, *, #270, .T. ) ;
#319 = EDGE_CURVE ( 'NONE', #244, #298, #31, .T. ) ;
#320 = CARTESIAN_POINT ( 'NONE',  ( 180.0000000000000000, 0.7500000000000000000, 114.9999999999999858 ) ) ;
#321 = FILL_AREA_STYLE_COLOUR ( '', #353 ) ;
#322 = ORIENTED_EDGE ( 'NONE', *, *, #280, .T. ) ;
#323 = VECTOR ( 'NONE', #100, 1000.000000000000000 ) ;
#324 = SURFACE_STYLE_USAGE ( .BOTH. , #246 ) ;
#325 = LINE ( 'NONE', #320, #293 ) ;
#326 = ADVANCED_FACE ( 'NONE', ( #340, #260, #96 ), #6, .T. ) ;
#327 = SURFACE_STYLE_USAGE ( .BOTH. , #134 ) ;
#328 = PRODUCT_DEFINITION_SHAPE ( 'NONE', 'NONE',  #160 ) ;
#329 = AXIS2_PLACEMENT_3D ( 'NONE', #248, #204, #49 ) ;
#330 = DIRECTION ( 'NONE',  ( 1.000000000000000000, -0.000000000000000000, 0.000000000000000000 ) ) ;
#331 = DIRECTION ( 'NONE',  ( 0.000000000000000000, -1.000000000000000000, 0.000000000000000000 ) ) ;
#332 = PLANE ( 'NONE',  #351 ) ;
#333 = AXIS2_PLACEMENT_3D ( 'NONE', #254, #251, #277 ) ;
#334 = STYLED_ITEM ( 'NONE', ( #166 ), #153 ) ;
#335 = DIRECTION ( 'NONE',  ( -1.000000000000000000, -0.000000000000000000, -0.000000000000000000 ) ) ;
#336 = DIRECTION ( 'NONE',  ( -0.000000000000000000, 1.000000000000000000, -0.000000000000000000 ) ) ;
#337 = DIRECTION ( 'NONE',  ( 0.000000000000000000, 0.000000000000000000, 1.000000000000000000 ) ) ;
#338 = ORIENTED_EDGE ( 'NONE', *, *, #224, .T. ) ;
#339 = PLANE ( 'NONE',  #21 ) ;
#340 = FACE_BOUND ( 'NONE', #238, .T. ) ;
#341 = ORIENTED_EDGE ( 'NONE', *, *, #261, .T. ) ;
#342 = DIRECTION ( 'NONE',  ( -1.000000000000000000, 0.000000000000000000, 0.000000000000000000 ) ) ;
#343 = AXIS2_PLACEMENT_3D ( 'NONE', #313, #60, #4 ) ;
#344 = CARTESIAN_POINT ( 'NONE',  ( 2.779948234064491650E-14, 0.7499999999999998890, 105.5000000000000142 ) ) ;
#345 = EDGE_CURVE ( 'NONE', #244, #288, #46, .T. ) ;
#346 = DIRECTION ( 'NONE',  ( 1.000000000000000000, 0.000000000000000000, 0.000000000000000000 ) ) ;
#347 = ORIENTED_EDGE ( 'NONE', *, *, #14, .T. ) ;
#348 =( NAMED_UNIT ( * ) SI_UNIT ( $, .STERADIAN. ) SOLID_ANGLE_UNIT ( ) );
#349 = EDGE_LOOP ( 'NONE', ( #312, #167 ) ) ;
#350 = EDGE_LOOP ( 'NONE', ( #213, #214, #107, #181 ) ) ;
#351 = AXIS2_PLACEMENT_3D ( 'NONE', #176, #281, #117 ) ;
#352 = EDGE_CURVE ( 'NONE', #39, #37, #108, .T. ) ;
#353 = COLOUR_RGB ( '',0.7529411764705882248, 1.000000000000000000, 0.7529411764705882248 ) ;
#354 = ORIENTED_EDGE ( 'NONE', *, *, #280, .F. ) ;
#355 = DIRECTION ( 'NONE',  ( 0.000000000000000000, -0.000000000000000000, -1.000000000000000000 ) ) ;
#356 = ORIENTED_EDGE ( 'NONE', *, *, #102, .F. ) ;
#357 = SHAPE_DEFINITION_REPRESENTATION ( #328, #153 ) ;
#358 = DIRECTION ( 'NONE',  ( 0.000000000000000000, -0.000000000000000000, -1.000000000000000000 ) ) ;
#359 = AXIS2_PLACEMENT_3D ( 'NONE', #263, #284, #27 ) ;
#360 = DIRECTION ( 'NONE',  ( -0.000000000000000000, -1.000000000000000000, -0.000000000000000000 ) ) ;
#361 = DIRECTION ( 'NONE',  ( -0.000000000000000000, -1.000000000000000000, -0.000000000000000000 ) ) ;
#362 = CARTESIAN_POINT ( 'NONE',  ( -180.0000000000000000, 0.7500000000000000000, 114.9999999999999858 ) ) ;
#363 = CIRCLE ( 'NONE', #66, 1.999999999999988010 ) ;
#364 = LINE ( 'NONE', #237, #253 ) ;
#365 = ORIENTED_EDGE ( 'NONE', *, *, #51, .T. ) ;
ENDSEC;
END-ISO-10303-21;
