ISO-10303-21;
HEADER;
FILE_DESCRIPTION (( 'STEP AP214' ),
    '1' );
FILE_NAME ('INGUN_115046.STEP',
    '2023-11-16T11:35:33',
    ( '' ),
    ( '' ),
    'SwSTEP 2.0',
    'SolidWorks 2021',
    '' );
FILE_SCHEMA (( 'AUTOMOTIVE_DESIGN' ));
ENDSEC;

DATA;
#1 = DIRECTION ( 'NONE',  ( 1.000000000000000000, 0.000000000000000000, 0.000000000000000000 ) ) ;
#2 = ORIENTED_EDGE ( 'NONE', *, *, #53, .F. ) ;
#3 = ADVANCED_FACE ( 'NONE', ( #162 ), #179, .F. ) ;
#4 = DIRECTION ( 'NONE',  ( -1.000000000000000000, -0.000000000000000000, -0.000000000000000000 ) ) ;
#5 = FACE_OUTER_BOUND ( 'NONE', #34, .T. ) ;
#6 = PRESENTATION_LAYER_ASSIGNMENT (  '', '', ( #44 ) ) ;
#7 = ORIENTED_EDGE ( 'NONE', *, *, #130, .T. ) ;
#8 = CARTESIAN_POINT ( 'NONE',  ( -275.0000000000002274, 0.01250000000000000069, 225.0000000000000284 ) ) ;
#9 = VERTEX_POINT ( 'NONE', #104 ) ;
#10 = VECTOR ( 'NONE', #174, 1000.000000000000000 ) ;
#11 =( NAMED_UNIT ( * ) PLANE_ANGLE_UNIT ( ) SI_UNIT ( $, .RADIAN. ) );
#12 = APPLICATION_PROTOCOL_DEFINITION ( 'draft international standard', 'automotive_design', 1998, #163 ) ;
#13 = CARTESIAN_POINT ( 'NONE',  ( -275.0000000000002274, 0.01250000000000000069, 225.0000000000000284 ) ) ;
#14 = PRODUCT_DEFINITION ( 'UNKNOWN', '', #57, #167 ) ;
#15 = CARTESIAN_POINT ( 'NONE',  ( 0.000000000000000000, 0.000000000000000000, 0.000000000000000000 ) ) ;
#16 = VECTOR ( 'NONE', #90, 1000.000000000000000 ) ;
#17 = ORIENTED_EDGE ( 'NONE', *, *, #130, .F. ) ;
#18 = EDGE_CURVE ( 'NONE', #9, #173, #121, .T. ) ;
#19 = ORIENTED_EDGE ( 'NONE', *, *, #99, .F. ) ;
#20 = ORIENTED_EDGE ( 'NONE', *, *, #96, .F. ) ;
#21 = ORIENTED_EDGE ( 'NONE', *, *, #186, .F. ) ;
#22 = LINE ( 'NONE', #143, #202 ) ;
#23 = AXIS2_PLACEMENT_3D ( 'NONE', #87, #116, #48 ) ;
#24 = DIRECTION ( 'NONE',  ( 0.000000000000000000, -0.000000000000000000, -1.000000000000000000 ) ) ;
#25 = CARTESIAN_POINT ( 'NONE',  ( -275.0000000000002274, -0.01250000000000000069, -224.9999999999999716 ) ) ;
#26 = EDGE_CURVE ( 'NONE', #158, #84, #52, .T. ) ;
#27 = CARTESIAN_POINT ( 'NONE',  ( 274.9999999999997726, -0.01250000000000000069, 225.0000000000000284 ) ) ;
#28 = DIRECTION ( 'NONE',  ( -0.000000000000000000, -1.000000000000000000, -0.000000000000000000 ) ) ;
#29 = PLANE ( 'NONE',  #101 ) ;
#30 = DIRECTION ( 'NONE',  ( 0.000000000000000000, -1.000000000000000000, 0.000000000000000000 ) ) ;
#31 = PLANE ( 'NONE',  #119 ) ;
#32 = ADVANCED_BREP_SHAPE_REPRESENTATION ( 'INGUN_115046', ( #175, #144 ), #139 ) ;
#33 = ORIENTED_EDGE ( 'NONE', *, *, #99, .T. ) ;
#34 = EDGE_LOOP ( 'NONE', ( #91, #194, #159, #136 ) ) ;
#35 = ORIENTED_EDGE ( 'NONE', *, *, #18, .F. ) ;
#36 = AXIS2_PLACEMENT_3D ( 'NONE', #127, #125, #72 ) ;
#37 = CARTESIAN_POINT ( 'NONE',  ( 274.9999999999997726, -0.01250000000000000069, 225.0000000000000284 ) ) ;
#38 = DIRECTION ( 'NONE',  ( 0.000000000000000000, 0.000000000000000000, -1.000000000000000000 ) ) ;
#39 = ORIENTED_EDGE ( 'NONE', *, *, #89, .F. ) ;
#40 = CARTESIAN_POINT ( 'NONE',  ( -275.0000000000002274, -0.01250000000000000069, 225.0000000000000284 ) ) ;
#41 = EDGE_CURVE ( 'NONE', #109, #161, #50, .T. ) ;
#42 = CARTESIAN_POINT ( 'NONE',  ( 274.9999999999997726, 0.01250000000000000069, 225.0000000000000284 ) ) ;
#43 = FILL_AREA_STYLE ('',( #58 ) ) ;
#44 = STYLED_ITEM ( 'NONE', ( #155 ), #32 ) ;
#45 = SURFACE_STYLE_USAGE ( .BOTH. , #93 ) ;
#46 =( LENGTH_UNIT ( ) NAMED_UNIT ( * ) SI_UNIT ( .MILLI., .METRE. ) );
#47 = ADVANCED_FACE ( 'NONE', ( #5 ), #191, .F. ) ;
#48 = DIRECTION ( 'NONE',  ( 0.000000000000000000, 0.000000000000000000, 1.000000000000000000 ) ) ;
#49 = DIRECTION ( 'NONE',  ( -0.000000000000000000, -1.000000000000000000, -0.000000000000000000 ) ) ;
#50 = LINE ( 'NONE', #40, #134 ) ;
#51 = DIRECTION ( 'NONE',  ( 0.000000000000000000, 0.000000000000000000, -1.000000000000000000 ) ) ;
#52 = LINE ( 'NONE', #8, #10 ) ;
#53 = EDGE_CURVE ( 'NONE', #173, #158, #22, .T. ) ;
#54 =( GEOMETRIC_REPRESENTATION_CONTEXT ( 3 ) GLOBAL_UNCERTAINTY_ASSIGNED_CONTEXT ( ( #106 ) ) GLOBAL_UNIT_ASSIGNED_CONTEXT ( ( #107, #11, #154 ) ) REPRESENTATION_CONTEXT ( 'NONE', 'WORKASPACE' ) );
#55 = PLANE ( 'NONE',  #36 ) ;
#56 = FACE_OUTER_BOUND ( 'NONE', #98, .T. ) ;
#57 = PRODUCT_DEFINITION_FORMATION_WITH_SPECIFIED_SOURCE ( 'ANY', '', #117, .NOT_KNOWN. ) ;
#58 = FILL_AREA_STYLE_COLOUR ( '', #76 ) ;
#59 = PRESENTATION_STYLE_ASSIGNMENT (( #45 ) ) ;
#60 = ADVANCED_FACE ( 'NONE', ( #165 ), #70, .T. ) ;
#61 = UNCERTAINTY_MEASURE_WITH_UNIT (LENGTH_MEASURE( 1.000000000000000082E-05 ), #46, 'distance_accuracy_value', 'NONE');
#62 = VECTOR ( 'NONE', #196, 1000.000000000000000 ) ;
#63 = PRODUCT_CONTEXT ( 'NONE', #163, 'mechanical' ) ;
#64 = SURFACE_SIDE_STYLE ('',( #74 ) ) ;
#65 = ORIENTED_EDGE ( 'NONE', *, *, #115, .F. ) ;
#66 = ORIENTED_EDGE ( 'NONE', *, *, #89, .T. ) ;
#67 = DIRECTION ( 'NONE',  ( -0.000000000000000000, -0.000000000000000000, 1.000000000000000000 ) ) ;
#68 = LINE ( 'NONE', #71, #111 ) ;
#69 = VECTOR ( 'NONE', #49, 1000.000000000000000 ) ;
#70 = PLANE ( 'NONE',  #164 ) ;
#71 = CARTESIAN_POINT ( 'NONE',  ( -275.0000000000002274, -0.01250000000000000069, -224.9999999999999716 ) ) ;
#72 = DIRECTION ( 'NONE',  ( 1.000000000000000000, 0.000000000000000000, -0.000000000000000000 ) ) ;
#73 = CLOSED_SHELL ( 'NONE', ( #3, #195, #147, #47, #138, #60 ) ) ;
#74 = SURFACE_STYLE_FILL_AREA ( #75 ) ;
#75 = FILL_AREA_STYLE ('',( #180 ) ) ;
#76 = COLOUR_RGB ( '',0.7529411764705882248, 0.7529411764705882248, 0.7529411764705882248 ) ;
#77 = DIRECTION ( 'NONE',  ( -0.000000000000000000, -1.000000000000000000, -0.000000000000000000 ) ) ;
#78 = EDGE_CURVE ( 'NONE', #158, #109, #168, .T. ) ;
#79 = SHAPE_DEFINITION_REPRESENTATION ( #110, #32 ) ;
#80 = SURFACE_STYLE_USAGE ( .BOTH. , #64 ) ;
#81 = EDGE_LOOP ( 'NONE', ( #105, #17, #19, #142 ) ) ;
#82 =( NAMED_UNIT ( * ) PLANE_ANGLE_UNIT ( ) SI_UNIT ( $, .RADIAN. ) );
#83 = VERTEX_POINT ( 'NONE', #25 ) ;
#84 = VERTEX_POINT ( 'NONE', #178 ) ;
#85 = STYLED_ITEM ( 'NONE', ( #59 ), #175 ) ;
#86 = CARTESIAN_POINT ( 'NONE',  ( -275.0000000000002274, 0.01250000000000000069, 225.0000000000000284 ) ) ;
#87 = CARTESIAN_POINT ( 'NONE',  ( 274.9999999999997726, 0.01250000000000000069, 225.0000000000000284 ) ) ;
#88 = DIRECTION ( 'NONE',  ( -1.000000000000000000, 0.000000000000000000, -0.000000000000000000 ) ) ;
#89 = EDGE_CURVE ( 'NONE', #108, #83, #68, .T. ) ;
#90 = DIRECTION ( 'NONE',  ( 0.000000000000000000, 0.000000000000000000, -1.000000000000000000 ) ) ;
#91 = ORIENTED_EDGE ( 'NONE', *, *, #41, .T. ) ;
#92 = DIRECTION ( 'NONE',  ( 0.000000000000000000, -0.000000000000000000, -1.000000000000000000 ) ) ;
#93 = SURFACE_SIDE_STYLE ('',( #184 ) ) ;
#94 = CARTESIAN_POINT ( 'NONE',  ( -275.0000000000002274, 0.01250000000000000069, -224.9999999999999716 ) ) ;
#95 =( LENGTH_UNIT ( ) NAMED_UNIT ( * ) SI_UNIT ( .MILLI., .METRE. ) );
#96 = EDGE_CURVE ( 'NONE', #161, #108, #176, .T. ) ;
#97 = MECHANICAL_DESIGN_GEOMETRIC_PRESENTATION_REPRESENTATION (  '', ( #44 ), #153 ) ;
#98 = EDGE_LOOP ( 'NONE', ( #33, #112, #188, #114 ) ) ;
#99 = EDGE_CURVE ( 'NONE', #84, #9, #133, .T. ) ;
#100 = DIRECTION ( 'NONE',  ( 1.000000000000000000, 0.000000000000000000, 0.000000000000000000 ) ) ;
#101 = AXIS2_PLACEMENT_3D ( 'NONE', #170, #30, #92 ) ;
#102 = CARTESIAN_POINT ( 'NONE',  ( 274.9999999999997726, -0.01250000000000000069, -224.9999999999999716 ) ) ;
#103 = EDGE_LOOP ( 'NONE', ( #66, #21, #35, #7 ) ) ;
#104 = CARTESIAN_POINT ( 'NONE',  ( 274.9999999999997726, 0.01250000000000000069, -224.9999999999999716 ) ) ;
#105 = ORIENTED_EDGE ( 'NONE', *, *, #96, .T. ) ;
#106 = UNCERTAINTY_MEASURE_WITH_UNIT (LENGTH_MEASURE( 1.000000000000000082E-05 ), #107, 'distance_accuracy_value', 'NONE');
#107 =( LENGTH_UNIT ( ) NAMED_UNIT ( * ) SI_UNIT ( .MILLI., .METRE. ) );
#108 = VERTEX_POINT ( 'NONE', #102 ) ;
#109 = VERTEX_POINT ( 'NONE', #197 ) ;
#110 = PRODUCT_DEFINITION_SHAPE ( 'NONE', 'NONE',  #14 ) ;
#111 = VECTOR ( 'NONE', #118, 1000.000000000000000 ) ;
#112 = ORIENTED_EDGE ( 'NONE', *, *, #18, .T. ) ;
#113 =( NAMED_UNIT ( * ) SI_UNIT ( $, .STERADIAN. ) SOLID_ANGLE_UNIT ( ) );
#114 = ORIENTED_EDGE ( 'NONE', *, *, #26, .T. ) ;
#115 = EDGE_CURVE ( 'NONE', #83, #109, #177, .T. ) ;
#116 = DIRECTION ( 'NONE',  ( -1.000000000000000000, 0.000000000000000000, 0.000000000000000000 ) ) ;
#117 = PRODUCT ( 'INGUN_115046', 'INGUN_115046', '', ( #63 ) ) ;
#118 = DIRECTION ( 'NONE',  ( -1.000000000000000000, -0.000000000000000000, -0.000000000000000000 ) ) ;
#119 = AXIS2_PLACEMENT_3D ( 'NONE', #13, #126, #182 ) ;
#120 = UNCERTAINTY_MEASURE_WITH_UNIT (LENGTH_MEASURE( 1.000000000000000082E-05 ), #95, 'distance_accuracy_value', 'NONE');
#121 = LINE ( 'NONE', #131, #150 ) ;
#122 = DIRECTION ( 'NONE',  ( 0.000000000000000000, -1.000000000000000000, 0.000000000000000000 ) ) ;
#123 = EDGE_LOOP ( 'NONE', ( #20, #187, #65, #39 ) ) ;
#124 = MECHANICAL_DESIGN_GEOMETRIC_PRESENTATION_REPRESENTATION (  '', ( #85 ), #54 ) ;
#125 = DIRECTION ( 'NONE',  ( 0.000000000000000000, 0.000000000000000000, 1.000000000000000000 ) ) ;
#126 = DIRECTION ( 'NONE',  ( 1.000000000000000000, -0.000000000000000000, 0.000000000000000000 ) ) ;
#127 = CARTESIAN_POINT ( 'NONE',  ( -275.0000000000002274, 0.01250000000000000069, -224.9999999999999716 ) ) ;
#128 = APPLICATION_CONTEXT ( 'automotive_design' ) ;
#129 = PRESENTATION_LAYER_ASSIGNMENT (  '', '', ( #85 ) ) ;
#130 = EDGE_CURVE ( 'NONE', #9, #108, #146, .T. ) ;
#131 = CARTESIAN_POINT ( 'NONE',  ( -275.0000000000002274, 0.01250000000000000069, -224.9999999999999716 ) ) ;
#132 = CARTESIAN_POINT ( 'NONE',  ( 274.9999999999997726, -0.01250000000000000069, -224.9999999999999716 ) ) ;
#133 = LINE ( 'NONE', #145, #171 ) ;
#134 = VECTOR ( 'NONE', #100, 1000.000000000000000 ) ;
#135 = CARTESIAN_POINT ( 'NONE',  ( -275.0000000000002274, -0.01250000000000000069, 225.0000000000000284 ) ) ;
#136 = ORIENTED_EDGE ( 'NONE', *, *, #78, .T. ) ;
#137 =( NAMED_UNIT ( * ) PLANE_ANGLE_UNIT ( ) SI_UNIT ( $, .RADIAN. ) );
#138 = ADVANCED_FACE ( 'NONE', ( #56 ), #29, .F. ) ;
#139 =( GEOMETRIC_REPRESENTATION_CONTEXT ( 3 ) GLOBAL_UNCERTAINTY_ASSIGNED_CONTEXT ( ( #120 ) ) GLOBAL_UNIT_ASSIGNED_CONTEXT ( ( #95, #137, #199 ) ) REPRESENTATION_CONTEXT ( 'NONE', 'WORKASPACE' ) );
#140 = VECTOR ( 'NONE', #28, 1000.000000000000000 ) ;
#141 = APPLICATION_PROTOCOL_DEFINITION ( 'draft international standard', 'automotive_design', 1998, #128 ) ;
#142 = ORIENTED_EDGE ( 'NONE', *, *, #157, .T. ) ;
#143 = CARTESIAN_POINT ( 'NONE',  ( -275.0000000000002274, 0.01250000000000000069, 225.0000000000000284 ) ) ;
#144 = AXIS2_PLACEMENT_3D ( 'NONE', #15, #189, #1 ) ;
#145 = CARTESIAN_POINT ( 'NONE',  ( 274.9999999999997726, 0.01250000000000000069, 225.0000000000000284 ) ) ;
#146 = LINE ( 'NONE', #152, #140 ) ;
#147 = ADVANCED_FACE ( 'NONE', ( #201 ), #31, .F. ) ;
#148 = EDGE_LOOP ( 'NONE', ( #190, #160, #2, #172 ) ) ;
#149 = CARTESIAN_POINT ( 'NONE',  ( -275.0000000000002274, 0.01250000000000000069, 225.0000000000000284 ) ) ;
#150 = VECTOR ( 'NONE', #4, 1000.000000000000000 ) ;
#151 = LINE ( 'NONE', #94, #198 ) ;
#152 = CARTESIAN_POINT ( 'NONE',  ( 274.9999999999997726, 0.01250000000000000069, -224.9999999999999716 ) ) ;
#153 =( GEOMETRIC_REPRESENTATION_CONTEXT ( 3 ) GLOBAL_UNCERTAINTY_ASSIGNED_CONTEXT ( ( #61 ) ) GLOBAL_UNIT_ASSIGNED_CONTEXT ( ( #46, #82, #113 ) ) REPRESENTATION_CONTEXT ( 'NONE', 'WORKASPACE' ) );
#154 =( NAMED_UNIT ( * ) SI_UNIT ( $, .STERADIAN. ) SOLID_ANGLE_UNIT ( ) );
#155 = PRESENTATION_STYLE_ASSIGNMENT (( #80 ) ) ;
#156 = COLOUR_RGB ( '',0.7529411764705882248, 0.7529411764705882248, 0.7529411764705882248 ) ;
#157 = EDGE_CURVE ( 'NONE', #84, #161, #185, .T. ) ;
#158 = VERTEX_POINT ( 'NONE', #149 ) ;
#159 = ORIENTED_EDGE ( 'NONE', *, *, #26, .F. ) ;
#160 = ORIENTED_EDGE ( 'NONE', *, *, #78, .F. ) ;
#161 = VERTEX_POINT ( 'NONE', #27 ) ;
#162 = FACE_OUTER_BOUND ( 'NONE', #81, .T. ) ;
#163 = APPLICATION_CONTEXT ( 'automotive_design' ) ;
#164 = AXIS2_PLACEMENT_3D ( 'NONE', #132, #122, #24 ) ;
#165 = FACE_OUTER_BOUND ( 'NONE', #123, .T. ) ;
#166 = PRODUCT_RELATED_PRODUCT_CATEGORY ( 'part', '', ( #117 ) ) ;
#167 = PRODUCT_DEFINITION_CONTEXT ( 'detailed design', #128, 'design' ) ;
#168 = LINE ( 'NONE', #192, #69 ) ;
#169 = DIRECTION ( 'NONE',  ( -0.000000000000000000, -1.000000000000000000, -0.000000000000000000 ) ) ;
#170 = CARTESIAN_POINT ( 'NONE',  ( 274.9999999999997726, 0.01250000000000000069, -224.9999999999999716 ) ) ;
#171 = VECTOR ( 'NONE', #51, 1000.000000000000000 ) ;
#172 = ORIENTED_EDGE ( 'NONE', *, *, #186, .T. ) ;
#173 = VERTEX_POINT ( 'NONE', #181 ) ;
#174 = DIRECTION ( 'NONE',  ( 1.000000000000000000, 0.000000000000000000, 0.000000000000000000 ) ) ;
#175 = MANIFOLD_SOLID_BREP ( 'Aufsatz-Linear austragen1', #73 ) ;
#176 = LINE ( 'NONE', #37, #16 ) ;
#177 = LINE ( 'NONE', #135, #62 ) ;
#178 = CARTESIAN_POINT ( 'NONE',  ( 274.9999999999997726, 0.01250000000000000069, 225.0000000000000284 ) ) ;
#179 = PLANE ( 'NONE',  #23 ) ;
#180 = FILL_AREA_STYLE_COLOUR ( '', #156 ) ;
#181 = CARTESIAN_POINT ( 'NONE',  ( -275.0000000000002274, 0.01250000000000000069, -224.9999999999999716 ) ) ;
#182 = DIRECTION ( 'NONE',  ( 0.000000000000000000, 0.000000000000000000, -1.000000000000000000 ) ) ;
#183 = AXIS2_PLACEMENT_3D ( 'NONE', #86, #38, #88 ) ;
#184 = SURFACE_STYLE_FILL_AREA ( #43 ) ;
#185 = LINE ( 'NONE', #42, #193 ) ;
#186 = EDGE_CURVE ( 'NONE', #173, #83, #151, .T. ) ;
#187 = ORIENTED_EDGE ( 'NONE', *, *, #41, .F. ) ;
#188 = ORIENTED_EDGE ( 'NONE', *, *, #53, .T. ) ;
#189 = DIRECTION ( 'NONE',  ( 0.000000000000000000, 0.000000000000000000, 1.000000000000000000 ) ) ;
#190 = ORIENTED_EDGE ( 'NONE', *, *, #115, .T. ) ;
#191 = PLANE ( 'NONE',  #183 ) ;
#192 = CARTESIAN_POINT ( 'NONE',  ( -275.0000000000002274, 0.01250000000000000069, 225.0000000000000284 ) ) ;
#193 = VECTOR ( 'NONE', #77, 1000.000000000000000 ) ;
#194 = ORIENTED_EDGE ( 'NONE', *, *, #157, .F. ) ;
#195 = ADVANCED_FACE ( 'NONE', ( #200 ), #55, .F. ) ;
#196 = DIRECTION ( 'NONE',  ( -0.000000000000000000, -0.000000000000000000, 1.000000000000000000 ) ) ;
#197 = CARTESIAN_POINT ( 'NONE',  ( -275.0000000000002274, -0.01250000000000000069, 225.0000000000000284 ) ) ;
#198 = VECTOR ( 'NONE', #169, 1000.000000000000000 ) ;
#199 =( NAMED_UNIT ( * ) SI_UNIT ( $, .STERADIAN. ) SOLID_ANGLE_UNIT ( ) );
#200 = FACE_OUTER_BOUND ( 'NONE', #103, .T. ) ;
#201 = FACE_OUTER_BOUND ( 'NONE', #148, .T. ) ;
#202 = VECTOR ( 'NONE', #67, 1000.000000000000000 ) ;
ENDSEC;
END-ISO-10303-21;
