ISO-10303-21;
HEADER;
FILE_DESCRIPTION (( 'STEP AP214' ),
    '1' );
FILE_NAME ('INGUN_113131.STEP',
    '2022-03-10T07:46:48',
    ( '' ),
    ( '' ),
    'SwSTEP 2.0',
    'SolidWorks 2018',
    '' );
FILE_SCHEMA (( 'AUTOMOTIVE_DESIGN' ));
ENDSEC;

DATA;
#1 = LINE ( 'NONE', #7, #207 ) ;
#2 = VERTEX_POINT ( 'NONE', #216 ) ;
#3 =( NAMED_UNIT ( * ) PLANE_ANGLE_UNIT ( ) SI_UNIT ( $, .RADIAN. ) );
#4 = CARTESIAN_POINT ( 'NONE',  ( 184.0000000000000568, -0.7500000000000000000, -224.9999999999999432 ) ) ;
#5 = CARTESIAN_POINT ( 'NONE',  ( 184.0000000000000568, -0.7500000000000000000, 225.0000000000000568 ) ) ;
#6 = LINE ( 'NONE', #173, #62 ) ;
#7 = CARTESIAN_POINT ( 'NONE',  ( -183.9999999999999432, -0.7500000000000000000, 225.0000000000000568 ) ) ;
#8 = FACE_OUTER_BOUND ( 'NONE', #98, .T. ) ;
#9 = DIRECTION ( 'NONE',  ( 0.000000000000000000, -1.000000000000000000, 0.000000000000000000 ) ) ;
#10 = APPLICATION_CONTEXT ( 'automotive_design' ) ;
#11 = LINE ( 'NONE', #121, #189 ) ;
#12 = ORIENTED_EDGE ( 'NONE', *, *, #139, .T. ) ;
#13 = UNCERTAINTY_MEASURE_WITH_UNIT (LENGTH_MEASURE( 1.000000000000000082E-05 ), #73, 'distance_accuracy_value', 'NONE');
#14 = AXIS2_PLACEMENT_3D ( 'NONE', #69, #84, #47 ) ;
#15 = VECTOR ( 'NONE', #150, 1000.000000000000000 ) ;
#16 = ADVANCED_FACE ( 'NONE', ( #8 ), #164, .F. ) ;
#17 = DIRECTION ( 'NONE',  ( 0.000000000000000000, 0.000000000000000000, -1.000000000000000000 ) ) ;
#18 = ADVANCED_FACE ( 'NONE', ( #128 ), #132, .F. ) ;
#19 = AXIS2_PLACEMENT_3D ( 'NONE', #49, #17, #136 ) ;
#20 = ADVANCED_FACE ( 'NONE', ( #156 ), #146, .F. ) ;
#21 = PLANE ( 'NONE',  #93 ) ;
#22 = CARTESIAN_POINT ( 'NONE',  ( 184.0000000000000568, -0.7500000000000000000, 225.0000000000000568 ) ) ;
#23 = APPLICATION_PROTOCOL_DEFINITION ( 'draft international standard', 'automotive_design', 1998, #10 ) ;
#24 = LINE ( 'NONE', #100, #184 ) ;
#25 = ORIENTED_EDGE ( 'NONE', *, *, #199, .F. ) ;
#26 =( GEOMETRIC_REPRESENTATION_CONTEXT ( 3 ) GLOBAL_UNCERTAINTY_ASSIGNED_CONTEXT ( ( #133 ) ) GLOBAL_UNIT_ASSIGNED_CONTEXT ( ( #186, #58, #91 ) ) REPRESENTATION_CONTEXT ( 'NONE', 'WORKASPACE' ) );
#27 =( GEOMETRIC_REPRESENTATION_CONTEXT ( 3 ) GLOBAL_UNCERTAINTY_ASSIGNED_CONTEXT ( ( #13 ) ) GLOBAL_UNIT_ASSIGNED_CONTEXT ( ( #73, #88, #119 ) ) REPRESENTATION_CONTEXT ( 'NONE', 'WORKASPACE' ) );
#28 = PRESENTATION_STYLE_ASSIGNMENT (( #198 ) ) ;
#29 = VECTOR ( 'NONE', #168, 1000.000000000000000 ) ;
#30 = SURFACE_SIDE_STYLE ('',( #76 ) ) ;
#31 = CARTESIAN_POINT ( 'NONE',  ( 184.0000000000000568, 0.7500000000000000000, -224.9999999999999432 ) ) ;
#32 = PRESENTATION_STYLE_ASSIGNMENT (( #56 ) ) ;
#33 = ORIENTED_EDGE ( 'NONE', *, *, #65, .T. ) ;
#34 = CARTESIAN_POINT ( 'NONE',  ( -183.9999999999999432, 0.7500000000000000000, -224.9999999999999716 ) ) ;
#35 = DIRECTION ( 'NONE',  ( 1.000000000000000000, 0.000000000000000000, 0.000000000000000000 ) ) ;
#36 = ORIENTED_EDGE ( 'NONE', *, *, #77, .T. ) ;
#37 = PRODUCT_DEFINITION ( 'UNKNOWN', '', #48, #158 ) ;
#38 = VECTOR ( 'NONE', #122, 1000.000000000000000 ) ;
#39 = ORIENTED_EDGE ( 'NONE', *, *, #131, .T. ) ;
#40 = AXIS2_PLACEMENT_3D ( 'NONE', #31, #196, #194 ) ;
#41 = STYLED_ITEM ( 'NONE', ( #32 ), #87 ) ;
#42 = ORIENTED_EDGE ( 'NONE', *, *, #199, .T. ) ;
#43 = PRODUCT_DEFINITION_SHAPE ( 'NONE', 'NONE',  #37 ) ;
#44 = VERTEX_POINT ( 'NONE', #45 ) ;
#45 = CARTESIAN_POINT ( 'NONE',  ( -183.9999999999999432, -0.7500000000000000000, -224.9999999999999716 ) ) ;
#46 = ORIENTED_EDGE ( 'NONE', *, *, #120, .T. ) ;
#47 = DIRECTION ( 'NONE',  ( 0.000000000000000000, 0.000000000000000000, -1.000000000000000000 ) ) ;
#48 = PRODUCT_DEFINITION_FORMATION_WITH_SPECIFIED_SOURCE ( 'ANY', '', #113, .NOT_KNOWN. ) ;
#49 = CARTESIAN_POINT ( 'NONE',  ( -183.9999999999999432, 0.7500000000000000000, 225.0000000000000568 ) ) ;
#50 = SURFACE_SIDE_STYLE ('',( #179 ) ) ;
#51 = VECTOR ( 'NONE', #172, 1000.000000000000000 ) ;
#52 = ORIENTED_EDGE ( 'NONE', *, *, #148, .T. ) ;
#53 = DIRECTION ( 'NONE',  ( -0.000000000000000000, -0.000000000000000000, 1.000000000000000000 ) ) ;
#54 = CARTESIAN_POINT ( 'NONE',  ( 184.0000000000000568, 0.7500000000000000000, 225.0000000000000568 ) ) ;
#55 = SURFACE_STYLE_FILL_AREA ( #143 ) ;
#56 = SURFACE_STYLE_USAGE ( .BOTH. , #50 ) ;
#57 = MANIFOLD_SOLID_BREP ( 'Aufsatz-Linear austragen1', #159 ) ;
#58 =( NAMED_UNIT ( * ) PLANE_ANGLE_UNIT ( ) SI_UNIT ( $, .RADIAN. ) );
#59 = APPLICATION_PROTOCOL_DEFINITION ( 'draft international standard', 'automotive_design', 1998, #104 ) ;
#60 =( NAMED_UNIT ( * ) SI_UNIT ( $, .STERADIAN. ) SOLID_ANGLE_UNIT ( ) );
#61 = ORIENTED_EDGE ( 'NONE', *, *, #144, .F. ) ;
#62 = VECTOR ( 'NONE', #53, 1000.000000000000000 ) ;
#63 = MECHANICAL_DESIGN_GEOMETRIC_PRESENTATION_REPRESENTATION (  '', ( #66 ), #83 ) ;
#64 = ORIENTED_EDGE ( 'NONE', *, *, #77, .F. ) ;
#65 = EDGE_CURVE ( 'NONE', #208, #2, #108, .T. ) ;
#66 = STYLED_ITEM ( 'NONE', ( #28 ), #57 ) ;
#67 = FILL_AREA_STYLE_COLOUR ( '', #166 ) ;
#68 = VECTOR ( 'NONE', #183, 1000.000000000000000 ) ;
#69 = CARTESIAN_POINT ( 'NONE',  ( -183.9999999999999432, 0.7500000000000000000, 225.0000000000000568 ) ) ;
#70 = CARTESIAN_POINT ( 'NONE',  ( 184.0000000000000568, 0.7500000000000000000, 225.0000000000000568 ) ) ;
#71 = PLANE ( 'NONE',  #185 ) ;
#72 = CARTESIAN_POINT ( 'NONE',  ( -183.9999999999999432, 0.7500000000000000000, -224.9999999999999716 ) ) ;
#73 =( LENGTH_UNIT ( ) NAMED_UNIT ( * ) SI_UNIT ( .MILLI., .METRE. ) );
#74 = CARTESIAN_POINT ( 'NONE',  ( -183.9999999999999432, -0.7500000000000000000, 225.0000000000000568 ) ) ;
#75 = PRODUCT_RELATED_PRODUCT_CATEGORY ( 'part', '', ( #113 ) ) ;
#76 = SURFACE_STYLE_FILL_AREA ( #181 ) ;
#77 = EDGE_CURVE ( 'NONE', #160, #210, #24, .T. ) ;
#78 = ORIENTED_EDGE ( 'NONE', *, *, #99, .F. ) ;
#79 = STYLED_ITEM ( 'NONE', ( #209 ), #192 ) ;
#80 = PLANE ( 'NONE',  #214 ) ;
#81 = ORIENTED_EDGE ( 'NONE', *, *, #112, .T. ) ;
#82 =( LENGTH_UNIT ( ) NAMED_UNIT ( * ) SI_UNIT ( .MILLI., .METRE. ) );
#83 =( GEOMETRIC_REPRESENTATION_CONTEXT ( 3 ) GLOBAL_UNCERTAINTY_ASSIGNED_CONTEXT ( ( #162 ) ) GLOBAL_UNIT_ASSIGNED_CONTEXT ( ( #82, #3, #101 ) ) REPRESENTATION_CONTEXT ( 'NONE', 'WORKASPACE' ) );
#84 = DIRECTION ( 'NONE',  ( 1.000000000000000000, -0.000000000000000000, 0.000000000000000000 ) ) ;
#85 = LINE ( 'NONE', #149, #195 ) ;
#86 = ORIENTED_EDGE ( 'NONE', *, *, #148, .F. ) ;
#87 = ADVANCED_FACE ( 'NONE', ( #110 ), #80, .T. ) ;
#88 =( NAMED_UNIT ( * ) PLANE_ANGLE_UNIT ( ) SI_UNIT ( $, .RADIAN. ) );
#89 = DIRECTION ( 'NONE',  ( 1.000000000000000000, 0.000000000000000000, 0.000000000000000000 ) ) ;
#90 = EDGE_LOOP ( 'NONE', ( #161, #61, #167, #205 ) ) ;
#91 =( NAMED_UNIT ( * ) SI_UNIT ( $, .STERADIAN. ) SOLID_ANGLE_UNIT ( ) );
#92 = FILL_AREA_STYLE_COLOUR ( '', #95 ) ;
#93 = AXIS2_PLACEMENT_3D ( 'NONE', #54, #169, #140 ) ;
#94 = ORIENTED_EDGE ( 'NONE', *, *, #215, .F. ) ;
#95 = COLOUR_RGB ( '',0.7529411764705882248, 1.000000000000000000, 0.7529411764705882248 ) ;
#96 = VERTEX_POINT ( 'NONE', #116 ) ;
#97 = PRESENTATION_LAYER_ASSIGNMENT (  '', '', ( #79 ) ) ;
#98 = EDGE_LOOP ( 'NONE', ( #46, #64, #25, #147 ) ) ;
#99 = EDGE_CURVE ( 'NONE', #208, #44, #155, .T. ) ;
#100 = CARTESIAN_POINT ( 'NONE',  ( 184.0000000000000568, 0.7500000000000000000, 225.0000000000000568 ) ) ;
#101 =( NAMED_UNIT ( * ) SI_UNIT ( $, .STERADIAN. ) SOLID_ANGLE_UNIT ( ) );
#102 = LINE ( 'NONE', #138, #38 ) ;
#103 = CARTESIAN_POINT ( 'NONE',  ( -183.9999999999999432, 0.7500000000000000000, 225.0000000000000568 ) ) ;
#104 = APPLICATION_CONTEXT ( 'automotive_design' ) ;
#105 = ADVANCED_FACE ( 'NONE', ( #176 ), #71, .F. ) ;
#106 = DIRECTION ( 'NONE',  ( -0.000000000000000000, -1.000000000000000000, -0.000000000000000000 ) ) ;
#107 = MECHANICAL_DESIGN_GEOMETRIC_PRESENTATION_REPRESENTATION (  '', ( #79 ), #117 ) ;
#108 = LINE ( 'NONE', #103, #68 ) ;
#109 =( LENGTH_UNIT ( ) NAMED_UNIT ( * ) SI_UNIT ( .MILLI., .METRE. ) );
#110 = FACE_OUTER_BOUND ( 'NONE', #130, .T. ) ;
#111 = VERTEX_POINT ( 'NONE', #74 ) ;
#112 = EDGE_CURVE ( 'NONE', #210, #134, #125, .T. ) ;
#113 = PRODUCT ( 'INGUN_113131', 'INGUN_113131', '', ( #174 ) ) ;
#114 = SHAPE_DEFINITION_REPRESENTATION ( #43, #192 ) ;
#115 = FACE_OUTER_BOUND ( 'NONE', #137, .T. ) ;
#116 = CARTESIAN_POINT ( 'NONE',  ( 184.0000000000000568, 0.7500000000000000000, -224.9999999999999432 ) ) ;
#117 =( GEOMETRIC_REPRESENTATION_CONTEXT ( 3 ) GLOBAL_UNCERTAINTY_ASSIGNED_CONTEXT ( ( #127 ) ) GLOBAL_UNIT_ASSIGNED_CONTEXT ( ( #109, #206, #60 ) ) REPRESENTATION_CONTEXT ( 'NONE', 'WORKASPACE' ) );
#118 = ORIENTED_EDGE ( 'NONE', *, *, #191, .F. ) ;
#119 =( NAMED_UNIT ( * ) SI_UNIT ( $, .STERADIAN. ) SOLID_ANGLE_UNIT ( ) );
#120 = EDGE_CURVE ( 'NONE', #111, #210, #1, .T. ) ;
#121 = CARTESIAN_POINT ( 'NONE',  ( -183.9999999999999432, 0.7500000000000000000, -224.9999999999999716 ) ) ;
#122 = DIRECTION ( 'NONE',  ( -0.000000000000000000, -1.000000000000000000, -0.000000000000000000 ) ) ;
#123 = CARTESIAN_POINT ( 'NONE',  ( 184.0000000000000568, -0.7500000000000000000, -224.9999999999999432 ) ) ;
#124 = DIRECTION ( 'NONE',  ( 1.000000000000000000, 0.000000000000000000, 0.000000000000000000 ) ) ;
#125 = LINE ( 'NONE', #5, #51 ) ;
#126 = ORIENTED_EDGE ( 'NONE', *, *, #120, .F. ) ;
#127 = UNCERTAINTY_MEASURE_WITH_UNIT (LENGTH_MEASURE( 1.000000000000000082E-05 ), #109, 'distance_accuracy_value', 'NONE');
#128 = FACE_OUTER_BOUND ( 'NONE', #141, .T. ) ;
#129 = VECTOR ( 'NONE', #153, 1000.000000000000000 ) ;
#130 = EDGE_LOOP ( 'NONE', ( #197, #126, #94, #118 ) ) ;
#131 = EDGE_CURVE ( 'NONE', #96, #208, #11, .T. ) ;
#132 = PLANE ( 'NONE',  #40 ) ;
#133 = UNCERTAINTY_MEASURE_WITH_UNIT (LENGTH_MEASURE( 1.000000000000000082E-05 ), #186, 'distance_accuracy_value', 'NONE');
#134 = VERTEX_POINT ( 'NONE', #123 ) ;
#135 = FILL_AREA_STYLE ('',( #163 ) ) ;
#136 = DIRECTION ( 'NONE',  ( -1.000000000000000000, 0.000000000000000000, -0.000000000000000000 ) ) ;
#137 = EDGE_LOOP ( 'NONE', ( #81, #86, #193, #36 ) ) ;
#138 = CARTESIAN_POINT ( 'NONE',  ( -183.9999999999999432, 0.7500000000000000000, 225.0000000000000568 ) ) ;
#139 = EDGE_CURVE ( 'NONE', #160, #96, #145, .T. ) ;
#140 = DIRECTION ( 'NONE',  ( 0.000000000000000000, 0.000000000000000000, 1.000000000000000000 ) ) ;
#141 = EDGE_LOOP ( 'NONE', ( #12, #39, #33, #42 ) ) ;
#142 = DIRECTION ( 'NONE',  ( 1.000000000000000000, 0.000000000000000000, 7.542275982507855914E-17 ) ) ;
#143 = FILL_AREA_STYLE ('',( #92 ) ) ;
#144 = EDGE_CURVE ( 'NONE', #2, #111, #102, .T. ) ;
#145 = LINE ( 'NONE', #70, #129 ) ;
#146 = PLANE ( 'NONE',  #14 ) ;
#147 = ORIENTED_EDGE ( 'NONE', *, *, #144, .T. ) ;
#148 = EDGE_CURVE ( 'NONE', #96, #134, #85, .T. ) ;
#149 = CARTESIAN_POINT ( 'NONE',  ( 184.0000000000000568, 0.7500000000000000000, -224.9999999999999432 ) ) ;
#150 = DIRECTION ( 'NONE',  ( -0.000000000000000000, -1.000000000000000000, -0.000000000000000000 ) ) ;
#151 = DIRECTION ( 'NONE',  ( 0.000000000000000000, -0.000000000000000000, -1.000000000000000000 ) ) ;
#152 = PRESENTATION_LAYER_ASSIGNMENT (  '', '', ( #66 ) ) ;
#153 = DIRECTION ( 'NONE',  ( 0.000000000000000000, 0.000000000000000000, -1.000000000000000000 ) ) ;
#154 = SURFACE_SIDE_STYLE ('',( #55 ) ) ;
#155 = LINE ( 'NONE', #34, #15 ) ;
#156 = FACE_OUTER_BOUND ( 'NONE', #90, .T. ) ;
#157 = SURFACE_STYLE_USAGE ( .BOTH. , #154 ) ;
#158 = PRODUCT_DEFINITION_CONTEXT ( 'detailed design', #10, 'design' ) ;
#159 = CLOSED_SHELL ( 'NONE', ( #182, #105, #20, #16, #18, #87 ) ) ;
#160 = VERTEX_POINT ( 'NONE', #170 ) ;
#161 = ORIENTED_EDGE ( 'NONE', *, *, #215, .T. ) ;
#162 = UNCERTAINTY_MEASURE_WITH_UNIT (LENGTH_MEASURE( 1.000000000000000082E-05 ), #82, 'distance_accuracy_value', 'NONE');
#163 = FILL_AREA_STYLE_COLOUR ( '', #211 ) ;
#164 = PLANE ( 'NONE',  #19 ) ;
#165 = PRESENTATION_LAYER_ASSIGNMENT (  '', '', ( #41 ) ) ;
#166 = COLOUR_RGB ( '',0.7529411764705882248, 1.000000000000000000, 0.7529411764705882248 ) ;
#167 = ORIENTED_EDGE ( 'NONE', *, *, #65, .F. ) ;
#168 = DIRECTION ( 'NONE',  ( -1.000000000000000000, -0.000000000000000000, -7.542275982507857147E-17 ) ) ;
#169 = DIRECTION ( 'NONE',  ( -1.000000000000000000, 0.000000000000000000, 0.000000000000000000 ) ) ;
#170 = CARTESIAN_POINT ( 'NONE',  ( 184.0000000000000568, 0.7500000000000000000, 225.0000000000000568 ) ) ;
#171 = LINE ( 'NONE', #204, #29 ) ;
#172 = DIRECTION ( 'NONE',  ( 0.000000000000000000, 0.000000000000000000, -1.000000000000000000 ) ) ;
#173 = CARTESIAN_POINT ( 'NONE',  ( -183.9999999999999432, -0.7500000000000000000, 225.0000000000000568 ) ) ;
#174 = PRODUCT_CONTEXT ( 'NONE', #104, 'mechanical' ) ;
#175 = DIRECTION ( 'NONE',  ( 0.000000000000000000, 0.000000000000000000, 1.000000000000000000 ) ) ;
#176 = FACE_OUTER_BOUND ( 'NONE', #177, .T. ) ;
#177 = EDGE_LOOP ( 'NONE', ( #180, #78, #212, #52 ) ) ;
#178 = MECHANICAL_DESIGN_GEOMETRIC_PRESENTATION_REPRESENTATION (  '', ( #41 ), #27 ) ;
#179 = SURFACE_STYLE_FILL_AREA ( #135 ) ;
#180 = ORIENTED_EDGE ( 'NONE', *, *, #191, .T. ) ;
#181 = FILL_AREA_STYLE ('',( #67 ) ) ;
#182 = ADVANCED_FACE ( 'NONE', ( #115 ), #21, .F. ) ;
#183 = DIRECTION ( 'NONE',  ( -0.000000000000000000, -0.000000000000000000, 1.000000000000000000 ) ) ;
#184 = VECTOR ( 'NONE', #217, 1000.000000000000000 ) ;
#185 = AXIS2_PLACEMENT_3D ( 'NONE', #203, #201, #142 ) ;
#186 =( LENGTH_UNIT ( ) NAMED_UNIT ( * ) SI_UNIT ( .MILLI., .METRE. ) );
#187 = CARTESIAN_POINT ( 'NONE',  ( -183.9999999999999432, 0.7500000000000000000, 225.0000000000000568 ) ) ;
#188 = CARTESIAN_POINT ( 'NONE',  ( 0.000000000000000000, 0.000000000000000000, 0.000000000000000000 ) ) ;
#189 = VECTOR ( 'NONE', #200, 1000.000000000000000 ) ;
#190 = VECTOR ( 'NONE', #35, 1000.000000000000000 ) ;
#191 = EDGE_CURVE ( 'NONE', #134, #44, #171, .T. ) ;
#192 = ADVANCED_BREP_SHAPE_REPRESENTATION ( 'INGUN_113131', ( #57, #202 ), #26 ) ;
#193 = ORIENTED_EDGE ( 'NONE', *, *, #139, .F. ) ;
#194 = DIRECTION ( 'NONE',  ( 0.000000000000000000, -0.000000000000000000, -1.000000000000000000 ) ) ;
#195 = VECTOR ( 'NONE', #106, 1000.000000000000000 ) ;
#196 = DIRECTION ( 'NONE',  ( 0.000000000000000000, -1.000000000000000000, 0.000000000000000000 ) ) ;
#197 = ORIENTED_EDGE ( 'NONE', *, *, #112, .F. ) ;
#198 = SURFACE_STYLE_USAGE ( .BOTH. , #30 ) ;
#199 = EDGE_CURVE ( 'NONE', #2, #160, #213, .T. ) ;
#200 = DIRECTION ( 'NONE',  ( -1.000000000000000000, -0.000000000000000000, -7.542275982507857147E-17 ) ) ;
#201 = DIRECTION ( 'NONE',  ( -7.542275982507855914E-17, 0.000000000000000000, 1.000000000000000000 ) ) ;
#202 = AXIS2_PLACEMENT_3D ( 'NONE', #188, #175, #124 ) ;
#203 = CARTESIAN_POINT ( 'NONE',  ( -183.9999999999999432, 0.7500000000000000000, -224.9999999999999716 ) ) ;
#204 = CARTESIAN_POINT ( 'NONE',  ( -183.9999999999999432, -0.7500000000000000000, -224.9999999999999716 ) ) ;
#205 = ORIENTED_EDGE ( 'NONE', *, *, #99, .T. ) ;
#206 =( NAMED_UNIT ( * ) PLANE_ANGLE_UNIT ( ) SI_UNIT ( $, .RADIAN. ) );
#207 = VECTOR ( 'NONE', #89, 1000.000000000000000 ) ;
#208 = VERTEX_POINT ( 'NONE', #72 ) ;
#209 = PRESENTATION_STYLE_ASSIGNMENT (( #157 ) ) ;
#210 = VERTEX_POINT ( 'NONE', #22 ) ;
#211 = COLOUR_RGB ( '',0.9882352941176471006, 0.7372549019607843590, 0.5176470588235293491 ) ;
#212 = ORIENTED_EDGE ( 'NONE', *, *, #131, .F. ) ;
#213 = LINE ( 'NONE', #187, #190 ) ;
#214 = AXIS2_PLACEMENT_3D ( 'NONE', #4, #9, #151 ) ;
#215 = EDGE_CURVE ( 'NONE', #44, #111, #6, .T. ) ;
#216 = CARTESIAN_POINT ( 'NONE',  ( -183.9999999999999432, 0.7500000000000000000, 225.0000000000000568 ) ) ;
#217 = DIRECTION ( 'NONE',  ( -0.000000000000000000, -1.000000000000000000, -0.000000000000000000 ) ) ;
ENDSEC;
END-ISO-10303-21;
