ISO-10303-21;
HEADER;
FILE_DESCRIPTION (( 'STEP AP214' ),
    '1' );
FILE_NAME ('112912~0.STEP',
    '2022-01-19T13:12:13',
    ( '' ),
    ( '' ),
    'SwSTEP 2.0',
    'SolidWorks 2018',
    '' );
FILE_SCHEMA (( 'AUTOMOTIVE_DESIGN' ));
ENDSEC;

DATA;
#1 = EDGE_CURVE ( 'NONE', #84, #222, #86, .T. ) ;
#2 = VECTOR ( 'NONE', #72, 1000.000000000000000 ) ;
#3 = PRODUCT_DEFINITION_CONTEXT ( 'detailed design', #202, 'design' ) ;
#4 = CARTESIAN_POINT ( 'NONE',  ( 0.000000000000000000, 0.000000000000000000, 0.000000000000000000 ) ) ;
#5 =( LENGTH_UNIT ( ) NAMED_UNIT ( * ) SI_UNIT ( .MILLI., .METRE. ) );
#6 = ADVANCED_FACE ( 'NONE', ( #60 ), #125, .F. ) ;
#7 = DIRECTION ( 'NONE',  ( 1.000000000000000000, 0.000000000000000000, 0.000000000000000000 ) ) ;
#8 =( NAMED_UNIT ( * ) PLANE_ANGLE_UNIT ( ) SI_UNIT ( $, .RADIAN. ) );
#9 = DIRECTION ( 'NONE',  ( 0.000000000000000000, 0.000000000000000000, 1.000000000000000000 ) ) ;
#10 = ADVANCED_FACE ( 'NONE', ( #69 ), #76, .T. ) ;
#11 = UNCERTAINTY_MEASURE_WITH_UNIT (LENGTH_MEASURE( 1.000000000000000082E-05 ), #5, 'distance_accuracy_value', 'NONE');
#12 =( GEOMETRIC_REPRESENTATION_CONTEXT ( 3 ) GLOBAL_UNCERTAINTY_ASSIGNED_CONTEXT ( ( #184 ) ) GLOBAL_UNIT_ASSIGNED_CONTEXT ( ( #95, #38, #168 ) ) REPRESENTATION_CONTEXT ( 'NONE', 'WORKASPACE' ) );
#13 = APPLICATION_PROTOCOL_DEFINITION ( 'draft international standard', 'automotive_design', 1998, #143 ) ;
#14 = MECHANICAL_DESIGN_GEOMETRIC_PRESENTATION_REPRESENTATION (  '', ( #218 ), #12 ) ;
#15 = LINE ( 'NONE', #59, #64 ) ;
#16 = ORIENTED_EDGE ( 'NONE', *, *, #131, .F. ) ;
#17 = CARTESIAN_POINT ( 'NONE',  ( -500.0000000000000000, 0.06999999999999996503, 224.9999999999999716 ) ) ;
#18 = CARTESIAN_POINT ( 'NONE',  ( 275.0000000000000000, -0.06999999999999996503, 224.9999999999999716 ) ) ;
#19 = CARTESIAN_POINT ( 'NONE',  ( -500.0000000000000000, 0.06999999999999996503, -225.0000000000000284 ) ) ;
#20 = ORIENTED_EDGE ( 'NONE', *, *, #88, .T. ) ;
#21 = DIRECTION ( 'NONE',  ( 0.000000000000000000, -1.000000000000000000, 0.000000000000000000 ) ) ;
#22 = SURFACE_STYLE_USAGE ( .BOTH. , #210 ) ;
#23 = DIRECTION ( 'NONE',  ( -1.233581138472396211E-16, 0.000000000000000000, -1.000000000000000000 ) ) ;
#24 = COLOUR_RGB ( '',0.7529411764705882248, 0.7529411764705882248, 0.7529411764705882248 ) ;
#25 = CARTESIAN_POINT ( 'NONE',  ( 275.0000000000000000, -0.06999999999999996503, -225.0000000000000853 ) ) ;
#26 = CARTESIAN_POINT ( 'NONE',  ( -275.0000000000000000, -0.06999999999999996503, -225.0000000000000284 ) ) ;
#27 = FILL_AREA_STYLE ('',( #66 ) ) ;
#28 = APPLICATION_CONTEXT ( 'automotive_design' ) ;
#29 = VECTOR ( 'NONE', #249, 1000.000000000000000 ) ;
#30 = PRODUCT_RELATED_PRODUCT_CATEGORY ( 'part', '', ( #155 ) ) ;
#31 = APPLICATION_CONTEXT ( 'automotive_design' ) ;
#32 = APPLICATION_PROTOCOL_DEFINITION ( 'draft international standard', 'automotive_design', 1998, #49 ) ;
#33 = EDGE_LOOP ( 'NONE', ( #70, #234, #142, #192 ) ) ;
#34 = AXIS2_PLACEMENT_3D ( 'NONE', #134, #198, #100 ) ;
#35 = LINE ( 'NONE', #132, #160 ) ;
#36 = ORIENTED_EDGE ( 'NONE', *, *, #182, .T. ) ;
#37 =( GEOMETRIC_REPRESENTATION_CONTEXT ( 3 ) GLOBAL_UNCERTAINTY_ASSIGNED_CONTEXT ( ( #165 ) ) GLOBAL_UNIT_ASSIGNED_CONTEXT ( ( #116, #175, #153 ) ) REPRESENTATION_CONTEXT ( 'NONE', 'WORKASPACE' ) );
#38 =( NAMED_UNIT ( * ) PLANE_ANGLE_UNIT ( ) SI_UNIT ( $, .RADIAN. ) );
#39 = DIRECTION ( 'NONE',  ( -1.000000000000000000, 0.000000000000000000, 1.233581138472396211E-16 ) ) ;
#41 = LINE ( 'NONE', #17, #176 ) ;
#40 = DIRECTION ( 'NONE',  ( -0.000000000000000000, 1.000000000000000000, -0.000000000000000000 ) ) ;
#42 =( NAMED_UNIT ( * ) PLANE_ANGLE_UNIT ( ) SI_UNIT ( $, .RADIAN. ) );
#43 = LINE ( 'NONE', #219, #225 ) ;
#44 = ORIENTED_EDGE ( 'NONE', *, *, #201, .F. ) ;
#45 = SURFACE_STYLE_USAGE ( .BOTH. , #62 ) ;
#46 = PRODUCT_DEFINITION ( 'UNKNOWN', '', #141, #191 ) ;
#47 = CARTESIAN_POINT ( 'NONE',  ( 0.000000000000000000, 0.000000000000000000, 0.000000000000000000 ) ) ;
#48 = FACE_OUTER_BOUND ( 'NONE', #33, .T. ) ;
#49 = APPLICATION_CONTEXT ( 'automotive_design' ) ;
#50 = EDGE_CURVE ( 'NONE', #145, #247, #41, .T. ) ;
#51 = APPLICATION_PROTOCOL_DEFINITION ( 'draft international standard', 'automotive_design', 1998, #31 ) ;
#52 = STYLED_ITEM ( 'NONE', ( #199 ), #246 ) ;
#53 = ORIENTED_EDGE ( 'NONE', *, *, #50, .T. ) ;
#54 = PRODUCT_RELATED_PRODUCT_CATEGORY ( 'part', '', ( #140 ) ) ;
#55 = SURFACE_STYLE_FILL_AREA ( #209 ) ;
#56 = ORIENTED_EDGE ( 'NONE', *, *, #186, .T. ) ;
#57 = FILL_AREA_STYLE_COLOUR ( '', #128 ) ;
#58 = CARTESIAN_POINT ( 'NONE',  ( -275.0000000000000000, -0.06999999999999996503, -225.0000000000000284 ) ) ;
#59 = CARTESIAN_POINT ( 'NONE',  ( 275.0000000000000568, -0.06999999999999996503, 224.9999999999999147 ) ) ;
#60 = FACE_OUTER_BOUND ( 'NONE', #151, .T. ) ;
#61 =( NAMED_UNIT ( * ) SI_UNIT ( $, .STERADIAN. ) SOLID_ANGLE_UNIT ( ) );
#62 = SURFACE_SIDE_STYLE ('',( #82 ) ) ;
#63 = SHAPE_REPRESENTATION ( '112765~0_S', ( #120 ), #37 ) ;
#64 = VECTOR ( 'NONE', #240, 1000.000000000000000 ) ;
#65 = DIRECTION ( 'NONE',  ( 1.233581138472396211E-16, 0.000000000000000000, 1.000000000000000000 ) ) ;
#66 = FILL_AREA_STYLE_COLOUR ( '', #24 ) ;
#67 = ORIENTED_EDGE ( 'NONE', *, *, #186, .F. ) ;
#68 = EDGE_CURVE ( 'NONE', #222, #144, #227, .T. ) ;
#69 = FACE_OUTER_BOUND ( 'NONE', #93, .T. ) ;
#70 = ORIENTED_EDGE ( 'NONE', *, *, #131, .T. ) ;
#71 = DIRECTION ( 'NONE',  ( 0.000000000000000000, -0.000000000000000000, -1.000000000000000000 ) ) ;
#72 = DIRECTION ( 'NONE',  ( -0.000000000000000000, 1.000000000000000000, -0.000000000000000000 ) ) ;
#73 = DIRECTION ( 'NONE',  ( 0.000000000000000000, -0.000000000000000000, -1.000000000000000000 ) ) ;
#74 = VECTOR ( 'NONE', #40, 1000.000000000000000 ) ;
#75 = ORIENTED_EDGE ( 'NONE', *, *, #1, .F. ) ;
#76 = PLANE ( 'NONE',  #104 ) ;
#77 = PRODUCT_DEFINITION ( 'UNKNOWN', '', #162, #3 ) ;
#78 = PLANE ( 'NONE',  #106 ) ;
#80 = VECTOR ( 'NONE', #97, 1000.000000000000000 ) ;
#79 = CARTESIAN_POINT ( 'NONE',  ( 275.0000000000000000, -0.06999999999999996503, -225.0000000000000853 ) ) ;
#81 =( NAMED_UNIT ( * ) SI_UNIT ( $, .STERADIAN. ) SOLID_ANGLE_UNIT ( ) );
#82 = SURFACE_STYLE_FILL_AREA ( #27 ) ;
#83 = ADVANCED_FACE ( 'NONE', ( #48 ), #111, .F. ) ;
#84 = VERTEX_POINT ( 'NONE', #18 ) ;
#85 = VECTOR ( 'NONE', #179, 1000.000000000000000 ) ;
#86 = LINE ( 'NONE', #94, #29 ) ;
#87 = PRODUCT_CONTEXT ( 'NONE', #157, 'mechanical' ) ;
#88 = EDGE_CURVE ( 'NONE', #144, #129, #121, .T. ) ;
#89 = SHAPE_REPRESENTATION ( '112912~0', ( #34, #161 ), #180 ) ;
#90 = CLOSED_SHELL ( 'NONE', ( #83, #6, #177, #10, #217, #150 ) ) ;
#91 = DIRECTION ( 'NONE',  ( 0.000000000000000000, 0.000000000000000000, -1.000000000000000000 ) ) ;
#92 = LINE ( 'NONE', #130, #159 ) ;
#93 = EDGE_LOOP ( 'NONE', ( #96, #44, #250, #75 ) ) ;
#94 = CARTESIAN_POINT ( 'NONE',  ( 275.0000000000000000, -0.06999999999999996503, -225.0000000000000853 ) ) ;
#95 =( LENGTH_UNIT ( ) NAMED_UNIT ( * ) SI_UNIT ( .MILLI., .METRE. ) );
#96 = ORIENTED_EDGE ( 'NONE', *, *, #206, .F. ) ;
#97 = DIRECTION ( 'NONE',  ( -0.000000000000000000, 1.000000000000000000, -0.000000000000000000 ) ) ;
#98 = CARTESIAN_POINT ( 'NONE',  ( -500.0000000000000000, -0.06999999999999996503, 224.9999999999999716 ) ) ;
#99 = ORIENTED_EDGE ( 'NONE', *, *, #204, .T. ) ;
#100 = DIRECTION ( 'NONE',  ( 1.000000000000000000, 0.000000000000000000, 0.000000000000000000 ) ) ;
#101 = DIRECTION ( 'NONE',  ( 0.000000000000000000, 0.000000000000000000, 1.000000000000000000 ) ) ;
#102 = APPLICATION_PROTOCOL_DEFINITION ( 'draft international standard', 'automotive_design', 1998, #157 ) ;
#103 = VERTEX_POINT ( 'NONE', #213 ) ;
#104 = AXIS2_PLACEMENT_3D ( 'NONE', #253, #21, #71 ) ;
#105 =( REPRESENTATION_RELATIONSHIP ('NONE','NONE', #89, #63 ) REPRESENTATION_RELATIONSHIP_WITH_TRANSFORMATION ( #228 )SHAPE_REPRESENTATION_RELATIONSHIP( ) );
#106 = AXIS2_PLACEMENT_3D ( 'NONE', #79, #178, #23 ) ;
#107 = CARTESIAN_POINT ( 'NONE',  ( -500.0000000000000000, 0.06999999999999996503, -225.0000000000000284 ) ) ;
#108 = DIRECTION ( 'NONE',  ( 1.000000000000000000, 0.000000000000000000, -0.000000000000000000 ) ) ;
#109 = CARTESIAN_POINT ( 'NONE',  ( -274.9999999999999432, -0.06999999999999996503, 224.9999999999999716 ) ) ;
#110 = CONTEXT_DEPENDENT_SHAPE_REPRESENTATION ( #105, #123 ) ;
#112 = ORIENTED_EDGE ( 'NONE', *, *, #189, .F. ) ;
#111 = PLANE ( 'NONE',  #239 ) ;
#113 = PLANE ( 'NONE',  #232 ) ;
#114 = PRESENTATION_LAYER_ASSIGNMENT (  '', '', ( #218 ) ) ;
#115 = CARTESIAN_POINT ( 'NONE',  ( 275.0000000000000568, 0.06999999999999996503, 224.9999999999999147 ) ) ;
#116 =( LENGTH_UNIT ( ) NAMED_UNIT ( * ) SI_UNIT ( .MILLI., .METRE. ) );
#117 = DIRECTION ( 'NONE',  ( 0.000000000000000000, 0.000000000000000000, 1.000000000000000000 ) ) ;
#118 = VECTOR ( 'NONE', #167, 1000.000000000000000 ) ;
#119 = EDGE_LOOP ( 'NONE', ( #195, #53, #56, #20 ) ) ;
#120 = AXIS2_PLACEMENT_3D ( 'NONE', #152, #117, #7 ) ;
#121 = LINE ( 'NONE', #19, #181 ) ;
#122 = AXIS2_PLACEMENT_3D ( 'NONE', #4, #101, #133 ) ;
#123 = PRODUCT_DEFINITION_SHAPE ( 'NONE', 'NONE',  #254 ) ;
#124 = ORIENTED_EDGE ( 'NONE', *, *, #206, .T. ) ;
#125 = PLANE ( 'NONE',  #196 ) ;
#126 = FACE_OUTER_BOUND ( 'NONE', #183, .T. ) ;
#127 = PRODUCT_DEFINITION ( 'UNKNOWN', '', #248, #236 ) ;
#128 = COLOUR_RGB ( '',0.7529411764705882248, 0.7529411764705882248, 0.7529411764705882248 ) ;
#129 = VERTEX_POINT ( 'NONE', #173 ) ;
#130 = CARTESIAN_POINT ( 'NONE',  ( -275.0000000000000000, -0.06999999999999996503, -225.0000000000000284 ) ) ;
#131 = EDGE_CURVE ( 'NONE', #242, #129, #238, .T. ) ;
#132 = CARTESIAN_POINT ( 'NONE',  ( -275.0000000000000000, 0.06999999999999996503, -225.0000000000000284 ) ) ;
#133 = DIRECTION ( 'NONE',  ( 1.000000000000000000, 0.000000000000000000, 0.000000000000000000 ) ) ;
#134 = CARTESIAN_POINT ( 'NONE',  ( 0.000000000000000000, 0.000000000000000000, 0.000000000000000000 ) ) ;
#135 = PRODUCT_DEFINITION_SHAPE ( 'NONE', 'NONE',  #77 ) ;
#136 = SHAPE_REPRESENTATION_RELATIONSHIP ( 'NONE' , 'NONE' ,  #63, #246 ) ;
#137 = ORIENTED_EDGE ( 'NONE', *, *, #182, .F. ) ;
#138 = DIRECTION ( 'NONE',  ( 1.000000000000000000, 0.000000000000000000, 0.000000000000000000 ) ) ;
#139 = PRODUCT_CONTEXT ( 'NONE', #49, 'mechanical' ) ;
#140 = PRODUCT ( '112912~0', '112912~0', '', ( #224 ) ) ;
#141 = PRODUCT_DEFINITION_FORMATION_WITH_SPECIFIED_SOURCE ( 'ANY', '', #140, .NOT_KNOWN. ) ;
#142 = ORIENTED_EDGE ( 'NONE', *, *, #68, .F. ) ;
#143 = APPLICATION_CONTEXT ( 'automotive_design' ) ;
#144 = VERTEX_POINT ( 'NONE', #193 ) ;
#145 = VERTEX_POINT ( 'NONE', #194 ) ;
#146 = DIRECTION ( 'NONE',  ( 1.000000000000000000, 0.000000000000000000, 0.000000000000000000 ) ) ;
#147 = AXIS2_PLACEMENT_3D ( 'NONE', #154, #220, #138 ) ;
#148 = CARTESIAN_POINT ( 'NONE',  ( 275.0000000000000000, 0.06999999999999996503, -225.0000000000000853 ) ) ;
#149 = PRODUCT_RELATED_PRODUCT_CATEGORY ( 'part', '', ( #223 ) ) ;
#150 = ADVANCED_FACE ( 'NONE', ( #126 ), #235, .T. ) ;
#151 = EDGE_LOOP ( 'NONE', ( #137, #124, #99, #200 ) ) ;
#152 = CARTESIAN_POINT ( 'NONE',  ( 0.000000000000000000, 0.000000000000000000, 0.000000000000000000 ) ) ;
#153 =( NAMED_UNIT ( * ) SI_UNIT ( $, .STERADIAN. ) SOLID_ANGLE_UNIT ( ) );
#154 = CARTESIAN_POINT ( 'NONE',  ( 0.000000000000000000, 0.000000000000000000, 0.000000000000000000 ) ) ;
#155 = PRODUCT ( '112765~0_S', '112765~0_S', '', ( #139 ) ) ;
#156 = PRESENTATION_LAYER_ASSIGNMENT (  '', '', ( #52 ) ) ;
#157 = APPLICATION_CONTEXT ( 'automotive_design' ) ;
#158 = APPLICATION_PROTOCOL_DEFINITION ( 'draft international standard', 'automotive_design', 1998, #28 ) ;
#159 = VECTOR ( 'NONE', #65, 1000.000000000000000 ) ;
#160 = VECTOR ( 'NONE', #170, 1000.000000000000000 ) ;
#161 = AXIS2_PLACEMENT_3D ( 'NONE', #47, #9, #241 ) ;
#162 = PRODUCT_DEFINITION_FORMATION_WITH_SPECIFIED_SOURCE ( 'ANY', '', #223, .NOT_KNOWN. ) ;
#163 = SHAPE_DEFINITION_REPRESENTATION ( #187, #89 ) ;
#164 = DIRECTION ( 'NONE',  ( -1.000000000000000000, 0.000000000000000000, -0.000000000000000000 ) ) ;
#165 = UNCERTAINTY_MEASURE_WITH_UNIT (LENGTH_MEASURE( 1.000000000000000082E-05 ), #116, 'distance_accuracy_value', 'NONE');
#166 = LINE ( 'NONE', #98, #85 ) ;
#167 = DIRECTION ( 'NONE',  ( -1.233581138472396211E-16, -0.000000000000000000, -1.000000000000000000 ) ) ;
#168 =( NAMED_UNIT ( * ) SI_UNIT ( $, .STERADIAN. ) SOLID_ANGLE_UNIT ( ) );
#169 = PRESENTATION_STYLE_ASSIGNMENT (( #22 ) ) ;
#171 = ORIENTED_EDGE ( 'NONE', *, *, #201, .T. ) ;
#170 = DIRECTION ( 'NONE',  ( 1.233581138472396211E-16, 0.000000000000000000, 1.000000000000000000 ) ) ;
#172 =( GEOMETRIC_REPRESENTATION_CONTEXT ( 3 ) GLOBAL_UNCERTAINTY_ASSIGNED_CONTEXT ( ( #205 ) ) GLOBAL_UNIT_ASSIGNED_CONTEXT ( ( #214, #8, #81 ) ) REPRESENTATION_CONTEXT ( 'NONE', 'WORKASPACE' ) );
#173 = CARTESIAN_POINT ( 'NONE',  ( -275.0000000000000000, 0.06999999999999996503, -225.0000000000000284 ) ) ;
#174 = SHAPE_DEFINITION_REPRESENTATION ( #245, #63 ) ;
#175 =( NAMED_UNIT ( * ) PLANE_ANGLE_UNIT ( ) SI_UNIT ( $, .RADIAN. ) );
#176 = VECTOR ( 'NONE', #146, 1000.000000000000000 ) ;
#177 = ADVANCED_FACE ( 'NONE', ( #229 ), #113, .F. ) ;
#178 = DIRECTION ( 'NONE',  ( 1.000000000000000000, 0.000000000000000000, -1.233581138472396211E-16 ) ) ;
#179 = DIRECTION ( 'NONE',  ( 1.000000000000000000, 0.000000000000000000, 0.000000000000000000 ) ) ;
#180 =( GEOMETRIC_REPRESENTATION_CONTEXT ( 3 ) GLOBAL_UNCERTAINTY_ASSIGNED_CONTEXT ( ( #11 ) ) GLOBAL_UNIT_ASSIGNED_CONTEXT ( ( #5, #42, #61 ) ) REPRESENTATION_CONTEXT ( 'NONE', 'WORKASPACE' ) );
#181 = VECTOR ( 'NONE', #190, 1000.000000000000000 ) ;
#182 = EDGE_CURVE ( 'NONE', #103, #145, #216, .T. ) ;
#183 = EDGE_LOOP ( 'NONE', ( #112, #16, #171, #36 ) ) ;
#184 = UNCERTAINTY_MEASURE_WITH_UNIT (LENGTH_MEASURE( 1.000000000000000082E-05 ), #95, 'distance_accuracy_value', 'NONE');
#185 = FACE_OUTER_BOUND ( 'NONE', #188, .T. ) ;
#186 = EDGE_CURVE ( 'NONE', #247, #144, #226, .T. ) ;
#187 = PRODUCT_DEFINITION_SHAPE ( 'NONE', 'NONE',  #46 ) ;
#188 = EDGE_LOOP ( 'NONE', ( #67, #244, #208, #203 ) ) ;
#189 = EDGE_CURVE ( 'NONE', #129, #145, #35, .T. ) ;
#190 = DIRECTION ( 'NONE',  ( -1.000000000000000000, -0.000000000000000000, -0.000000000000000000 ) ) ;
#191 = PRODUCT_DEFINITION_CONTEXT ( 'detailed design', #31, 'design' ) ;
#192 = ORIENTED_EDGE ( 'NONE', *, *, #243, .T. ) ;
#193 = CARTESIAN_POINT ( 'NONE',  ( 275.0000000000000000, 0.06999999999999996503, -225.0000000000000853 ) ) ;
#194 = CARTESIAN_POINT ( 'NONE',  ( -274.9999999999999432, 0.06999999999999996503, 224.9999999999999716 ) ) ;
#195 = ORIENTED_EDGE ( 'NONE', *, *, #189, .T. ) ;
#196 = AXIS2_PLACEMENT_3D ( 'NONE', #207, #91, #164 ) ;
#197 = MANIFOLD_SOLID_BREP ( 'Aufsatz-Linear austragen1', #90 ) ;
#198 = DIRECTION ( 'NONE',  ( 0.000000000000000000, 0.000000000000000000, 1.000000000000000000 ) ) ;
#199 = PRESENTATION_STYLE_ASSIGNMENT (( #45 ) ) ;
#200 = ORIENTED_EDGE ( 'NONE', *, *, #50, .F. ) ;
#201 = EDGE_CURVE ( 'NONE', #242, #103, #92, .T. ) ;
#202 = APPLICATION_CONTEXT ( 'automotive_design' ) ;
#203 = ORIENTED_EDGE ( 'NONE', *, *, #68, .T. ) ;
#204 = EDGE_CURVE ( 'NONE', #84, #247, #15, .T. ) ;
#205 = UNCERTAINTY_MEASURE_WITH_UNIT (LENGTH_MEASURE( 1.000000000000000082E-05 ), #214, 'distance_accuracy_value', 'NONE');
#206 = EDGE_CURVE ( 'NONE', #103, #84, #166, .T. ) ;
#207 = CARTESIAN_POINT ( 'NONE',  ( -500.0000000000000000, 0.06999999999999996503, 224.9999999999999716 ) ) ;
#208 = ORIENTED_EDGE ( 'NONE', *, *, #1, .T. ) ;
#209 = FILL_AREA_STYLE ('',( #57 ) ) ;
#210 = SURFACE_SIDE_STYLE ('',( #55 ) ) ;
#211 = CARTESIAN_POINT ( 'NONE',  ( 500.0000000000000000, 0.06999999999999996503, -225.0000000000000284 ) ) ;
#212 = DIRECTION ( 'NONE',  ( 0.000000000000000000, 0.000000000000000000, 1.000000000000000000 ) ) ;
#213 = CARTESIAN_POINT ( 'NONE',  ( -274.9999999999999432, -0.06999999999999996503, 224.9999999999999716 ) ) ;
#214 =( LENGTH_UNIT ( ) NAMED_UNIT ( * ) SI_UNIT ( .MILLI., .METRE. ) );
#216 = LINE ( 'NONE', #109, #74 ) ;
#215 = DIRECTION ( 'NONE',  ( -1.000000000000000000, -0.000000000000000000, -0.000000000000000000 ) ) ;
#217 = ADVANCED_FACE ( 'NONE', ( #185 ), #78, .T. ) ;
#218 = STYLED_ITEM ( 'NONE', ( #169 ), #197 ) ;
#219 = CARTESIAN_POINT ( 'NONE',  ( -500.0000000000000000, -0.06999999999999996503, -225.0000000000000284 ) ) ;
#220 = DIRECTION ( 'NONE',  ( 0.000000000000000000, 0.000000000000000000, 1.000000000000000000 ) ) ;
#221 = APPLICATION_PROTOCOL_DEFINITION ( 'draft international standard', 'automotive_design', 1998, #202 ) ;
#222 = VERTEX_POINT ( 'NONE', #25 ) ;
#223 = PRODUCT ( '112765~0', '112765~0', '', ( #87 ) ) ;
#224 = PRODUCT_CONTEXT ( 'NONE', #143, 'mechanical' ) ;
#225 = VECTOR ( 'NONE', #215, 1000.000000000000000 ) ;
#226 = LINE ( 'NONE', #148, #118 ) ;
#227 = LINE ( 'NONE', #237, #2 ) ;
#228 = ITEM_DEFINED_TRANSFORMATION ( 'NONE', 'NONE', #161,  #120 ) ;
#229 = FACE_OUTER_BOUND ( 'NONE', #119, .T. ) ;
#230 = MECHANICAL_DESIGN_GEOMETRIC_PRESENTATION_REPRESENTATION (  '', ( #52 ), #172 ) ;
#231 = DIRECTION ( 'NONE',  ( 1.233581138472396211E-16, 0.000000000000000000, 1.000000000000000000 ) ) ;
#232 = AXIS2_PLACEMENT_3D ( 'NONE', #211, #233, #73 ) ;
#234 = ORIENTED_EDGE ( 'NONE', *, *, #88, .F. ) ;
#233 = DIRECTION ( 'NONE',  ( 0.000000000000000000, -1.000000000000000000, 0.000000000000000000 ) ) ;
#235 = PLANE ( 'NONE',  #251 ) ;
#236 = PRODUCT_DEFINITION_CONTEXT ( 'detailed design', #28, 'design' ) ;
#237 = CARTESIAN_POINT ( 'NONE',  ( 275.0000000000000000, -0.06999999999999996503, -225.0000000000000853 ) ) ;
#238 = LINE ( 'NONE', #58, #80 ) ;
#239 = AXIS2_PLACEMENT_3D ( 'NONE', #107, #212, #108 ) ;
#240 = DIRECTION ( 'NONE',  ( -0.000000000000000000, 1.000000000000000000, -0.000000000000000000 ) ) ;
#241 = DIRECTION ( 'NONE',  ( 1.000000000000000000, 0.000000000000000000, 0.000000000000000000 ) ) ;
#242 = VERTEX_POINT ( 'NONE', #26 ) ;
#243 = EDGE_CURVE ( 'NONE', #222, #242, #43, .T. ) ;
#244 = ORIENTED_EDGE ( 'NONE', *, *, #204, .F. ) ;
#245 = PRODUCT_DEFINITION_SHAPE ( 'NONE', 'NONE',  #127 ) ;
#246 = ADVANCED_BREP_SHAPE_REPRESENTATION ( '', ( #197, #120 ), #37 ) ;
#247 = VERTEX_POINT ( 'NONE', #115 ) ;
#248 = PRODUCT_DEFINITION_FORMATION_WITH_SPECIFIED_SOURCE ( 'ANY', '', #155, .NOT_KNOWN. ) ;
#249 = DIRECTION ( 'NONE',  ( -1.233581138472396211E-16, -0.000000000000000000, -1.000000000000000000 ) ) ;
#250 = ORIENTED_EDGE ( 'NONE', *, *, #243, .F. ) ;
#251 = AXIS2_PLACEMENT_3D ( 'NONE', #252, #39, #231 ) ;
#252 = CARTESIAN_POINT ( 'NONE',  ( -275.0000000000000000, -0.06999999999999996503, -225.0000000000000284 ) ) ;
#253 = CARTESIAN_POINT ( 'NONE',  ( 500.0000000000000000, -0.06999999999999996503, -225.0000000000000284 ) ) ;
#254 = NEXT_ASSEMBLY_USAGE_OCCURRENCE ( 'NAUO1', ' ', ' ', #46, #127, $ ) ;
ENDSEC;
END-ISO-10303-21;
