ISO-10303-21;
HEADER;
FILE_DESCRIPTION (( 'STEP AP214' ),
    '1' );
FILE_NAME ('INGUN_105502.STEP',
    '2025-05-12T14:39:40',
    ( '' ),
    ( '' ),
    'SwSTEP 2.0',
    'SolidWorks 2023',
    '' );
FILE_SCHEMA (( 'AUTOMOTIVE_DESIGN' ));
ENDSEC;

DATA;
#1 = CARTESIAN_POINT ( 'NONE',  ( 1.530808498934191817E-16, 8.000000000000000000, 1.250000000000000222 ) ) ;
#2 = MECHANICAL_DESIGN_GEOMETRIC_PRESENTATION_REPRESENTATION (  '', ( #76 ), #216 ) ;
#3 =( GEOMETRIC_REPRESENTATION_CONTEXT ( 3 ) GLOBAL_UNCERTAINTY_ASSIGNED_CONTEXT ( ( #280 ) ) GLOBAL_UNIT_ASSIGNED_CONTEXT ( ( #340, #95, #65 ) ) REPRESENTATION_CONTEXT ( 'NONE', 'WORKASPACE' ) );
#4 = DIRECTION ( 'NONE',  ( 0.000000000000000000, 0.000000000000000000, 1.000000000000000000 ) ) ;
#5 = PRODUCT_DEFINITION_SHAPE ( 'NONE', 'NONE',  #79 ) ;
#6 = CIRCLE ( 'NONE', #205, 3.000000000000000444 ) ;
#7 = CARTESIAN_POINT ( 'NONE',  ( 0.000000000000000000, 8.000000000000000000, -1.250000000000000222 ) ) ;
#8 = ORIENTED_EDGE ( 'NONE', *, *, #225, .F. ) ;
#9 = CARTESIAN_POINT ( 'NONE',  ( 0.000000000000000000, 20.00000000000000000, 1.249999999999988232 ) ) ;
#10 = DIRECTION ( 'NONE',  ( -0.000000000000000000, 1.000000000000000000, -0.000000000000000000 ) ) ;
#11 = FACE_OUTER_BOUND ( 'NONE', #269, .T. ) ;
#12 = CARTESIAN_POINT ( 'NONE',  ( 3.673940397442060361E-16, 20.00000000000000000, 3.000000000000000444 ) ) ;
#13 = ORIENTED_EDGE ( 'NONE', *, *, #211, .F. ) ;
#14 = VERTEX_POINT ( 'NONE', #237 ) ;
#15 = DIRECTION ( 'NONE',  ( 0.000000000000000000, 0.000000000000000000, -1.000000000000000000 ) ) ;
#16 = ORIENTED_EDGE ( 'NONE', *, *, #90, .F. ) ;
#17 = FILL_AREA_STYLE ('',( #262 ) ) ;
#18 = ORIENTED_EDGE ( 'NONE', *, *, #182, .T. ) ;
#19 = AXIS2_PLACEMENT_3D ( 'NONE', #317, #191, #312 ) ;
#20 = CIRCLE ( 'NONE', #77, 1.249999999999988898 ) ;
#21 = ORIENTED_EDGE ( 'NONE', *, *, #240, .F. ) ;
#22 = ORIENTED_EDGE ( 'NONE', *, *, #283, .F. ) ;
#23 = ORIENTED_EDGE ( 'NONE', *, *, #220, .T. ) ;
#24 = CARTESIAN_POINT ( 'NONE',  ( 0.000000000000000000, 8.000000000000000000, 0.000000000000000000 ) ) ;
#25 = FILL_AREA_STYLE ('',( #272 ) ) ;
#26 = CARTESIAN_POINT ( 'NONE',  ( 0.000000000000000000, 8.000000000000000000, 0.000000000000000000 ) ) ;
#27 = CARTESIAN_POINT ( 'NONE',  ( 0.000000000000000000, 11.99999999999999289, 1.249999999999987566 ) ) ;
#28 = VERTEX_POINT ( 'NONE', #88 ) ;
#29 = DIRECTION ( 'NONE',  ( -0.000000000000000000, -1.000000000000000000, -0.000000000000000000 ) ) ;
#30 = AXIS2_PLACEMENT_3D ( 'NONE', #192, #197, #311 ) ;
#31 = VECTOR ( 'NONE', #39, 1000.000000000000000 ) ;
#32 = ORIENTED_EDGE ( 'NONE', *, *, #47, .T. ) ;
#33 =( NAMED_UNIT ( * ) PLANE_ANGLE_UNIT ( ) SI_UNIT ( $, .RADIAN. ) );
#34 =( NAMED_UNIT ( * ) SI_UNIT ( $, .STERADIAN. ) SOLID_ANGLE_UNIT ( ) );
#35 = VERTEX_POINT ( 'NONE', #302 ) ;
#36 = CARTESIAN_POINT ( 'NONE',  ( 0.000000000000000000, 8.000000000000000000, -1.250000000000000222 ) ) ;
#37 = DIRECTION ( 'NONE',  ( -0.000000000000000000, 1.000000000000000000, -0.000000000000000000 ) ) ;
#38 = LINE ( 'NONE', #166, #291 ) ;
#39 = DIRECTION ( 'NONE',  ( -0.000000000000000000, -1.000000000000000000, -0.000000000000000000 ) ) ;
#40 = FACE_OUTER_BOUND ( 'NONE', #227, .T. ) ;
#41 = CARTESIAN_POINT ( 'NONE',  ( 0.000000000000000000, 20.00000000000000000, 0.000000000000000000 ) ) ;
#42 = DIRECTION ( 'NONE',  ( 0.000000000000000000, 0.000000000000000000, -1.000000000000000000 ) ) ;
#43 = AXIS2_PLACEMENT_3D ( 'NONE', #201, #164, #281 ) ;
#44 = EDGE_LOOP ( 'NONE', ( #8, #179, #114, #13 ) ) ;
#45 = ORIENTED_EDGE ( 'NONE', *, *, #107, .T. ) ;
#46 = DIRECTION ( 'NONE',  ( 0.000000000000000000, 0.000000000000000000, 1.000000000000000000 ) ) ;
#47 = EDGE_CURVE ( 'NONE', #351, #229, #327, .T. ) ;
#48 = APPLICATION_CONTEXT ( 'automotive_design' ) ;
#49 = AXIS2_PLACEMENT_3D ( 'NONE', #299, #355, #150 ) ;
#50 = ADVANCED_FACE ( 'NONE', ( #330 ), #68, .T. ) ;
#51 = DIRECTION ( 'NONE',  ( 1.049727191138618079E-16, 0.5150380749100549327, -0.8571673007021118895 ) ) ;
#52 = FACE_OUTER_BOUND ( 'NONE', #202, .T. ) ;
#53 = LINE ( 'NONE', #12, #235 ) ;
#54 = FACE_OUTER_BOUND ( 'NONE', #129, .T. ) ;
#55 =( LENGTH_UNIT ( ) NAMED_UNIT ( * ) SI_UNIT ( .MILLI., .METRE. ) );
#56 = EDGE_LOOP ( 'NONE', ( #263, #319, #74, #260 ) ) ;
#57 = MECHANICAL_DESIGN_GEOMETRIC_PRESENTATION_REPRESENTATION (  '', ( #62 ), #273 ) ;
#58 =( NAMED_UNIT ( * ) PLANE_ANGLE_UNIT ( ) SI_UNIT ( $, .RADIAN. ) );
#59 = DIRECTION ( 'NONE',  ( -0.000000000000000000, -1.000000000000000000, -0.000000000000000000 ) ) ;
#60 = ORIENTED_EDGE ( 'NONE', *, *, #69, .T. ) ;
#61 = ORIENTED_EDGE ( 'NONE', *, *, #47, .F. ) ;
#62 = STYLED_ITEM ( 'NONE', ( #177 ), #170 ) ;
#63 = DIRECTION ( 'NONE',  ( -0.000000000000000000, -1.000000000000000000, -0.000000000000000000 ) ) ;
#64 = ORIENTED_EDGE ( 'NONE', *, *, #209, .T. ) ;
#65 =( NAMED_UNIT ( * ) SI_UNIT ( $, .STERADIAN. ) SOLID_ANGLE_UNIT ( ) );
#66 = DIRECTION ( 'NONE',  ( 0.000000000000000000, 0.000000000000000000, 1.000000000000000000 ) ) ;
#67 = CARTESIAN_POINT ( 'NONE',  ( 0.000000000000000000, 14.50000000000000000, 0.000000000000000000 ) ) ;
#68 = CYLINDRICAL_SURFACE ( 'NONE', #49, 1.250000000000000222 ) ;
#69 = EDGE_CURVE ( 'NONE', #111, #35, #236, .T. ) ;
#70 = COLOUR_RGB ( '',1.000000000000000000, 1.000000000000000000, 0.8470588235294117530 ) ;
#71 = DIRECTION ( 'NONE',  ( 0.000000000000000000, 0.000000000000000000, 1.000000000000000000 ) ) ;
#72 = VERTEX_POINT ( 'NONE', #293 ) ;
#73 = PRODUCT_RELATED_PRODUCT_CATEGORY ( 'part', '', ( #304 ) ) ;
#74 = ORIENTED_EDGE ( 'NONE', *, *, #90, .T. ) ;
#75 = CARTESIAN_POINT ( 'NONE',  ( 1.530808498934178012E-16, 20.00000000000000000, -1.249999999999988898 ) ) ;
#76 = STYLED_ITEM ( 'NONE', ( #80 ), #277 ) ;
#77 = AXIS2_PLACEMENT_3D ( 'NONE', #41, #37, #328 ) ;
#78 = AXIS2_PLACEMENT_3D ( 'NONE', #153, #89, #326 ) ;
#79 = PRODUCT_DEFINITION ( 'UNKNOWN', '', #163, #127 ) ;
#80 = PRESENTATION_STYLE_ASSIGNMENT (( #256 ) ) ;
#81 = FILL_AREA_STYLE_COLOUR ( '', #132 ) ;
#82 = ORIENTED_EDGE ( 'NONE', *, *, #248, .F. ) ;
#83 = EDGE_CURVE ( 'NONE', #258, #72, #20, .T. ) ;
#84 = CONICAL_SURFACE ( 'NONE', #314, 1.250000000000000222, 0.2629947316809194691 ) ;
#85 =( NAMED_UNIT ( * ) SI_UNIT ( $, .STERADIAN. ) SOLID_ANGLE_UNIT ( ) );
#86 = VERTEX_POINT ( 'NONE', #154 ) ;
#87 =( LENGTH_UNIT ( ) NAMED_UNIT ( * ) SI_UNIT ( .MILLI., .METRE. ) );
#88 = CARTESIAN_POINT ( 'NONE',  ( -2.143395387092223325E-15, 11.24892422621554999, 0.000000000000000000 ) ) ;
#89 = DIRECTION ( 'NONE',  ( 0.000000000000000000, 1.000000000000000000, 0.000000000000000000 ) ) ;
#90 = EDGE_CURVE ( 'NONE', #271, #14, #122, .T. ) ;
#91 = ORIENTED_EDGE ( 'NONE', *, *, #354, .T. ) ;
#92 = DIRECTION ( 'NONE',  ( 0.000000000000000000, 0.000000000000000000, 1.000000000000000000 ) ) ;
#93 = SHAPE_DEFINITION_REPRESENTATION ( #5, #208 ) ;
#94 = ORIENTED_EDGE ( 'NONE', *, *, #359, .T. ) ;
#95 =( NAMED_UNIT ( * ) PLANE_ANGLE_UNIT ( ) SI_UNIT ( $, .RADIAN. ) );
#96 = DIRECTION ( 'NONE',  ( 0.000000000000000000, 1.000000000000000000, 0.000000000000000000 ) ) ;
#97 = DIRECTION ( 'NONE',  ( -0.000000000000000000, -1.000000000000000000, -0.000000000000000000 ) ) ;
#98 = CIRCLE ( 'NONE', #329, 3.000000000000000444 ) ;
#99 = ORIENTED_EDGE ( 'NONE', *, *, #264, .F. ) ;
#100 = FACE_OUTER_BOUND ( 'NONE', #217, .T. ) ;
#101 = CARTESIAN_POINT ( 'NONE',  ( 3.673940397442060361E-16, 14.50000000000000000, -3.000000000000000000 ) ) ;
#102 = CARTESIAN_POINT ( 'NONE',  ( 1.530808498934191817E-16, 0.000000000000000000, 1.250000000000000222 ) ) ;
#103 = VECTOR ( 'NONE', #51, 1000.000000000000000 ) ;
#104 = LINE ( 'NONE', #1, #315 ) ;
#105 = CLOSED_SHELL ( 'NONE', ( #147, #115, #194, #186, #50, #188, #149, #345, #133, #350, #277, #142 ) ) ;
#106 = LINE ( 'NONE', #308, #103 ) ;
#107 = EDGE_CURVE ( 'NONE', #271, #111, #104, .T. ) ;
#108 = AXIS2_PLACEMENT_3D ( 'NONE', #358, #247, #4 ) ;
#109 = SURFACE_SIDE_STYLE ('',( #333 ) ) ;
#110 = AXIS2_PLACEMENT_3D ( 'NONE', #325, #96, #66 ) ;
#111 = VERTEX_POINT ( 'NONE', #102 ) ;
#112 = DIRECTION ( 'NONE',  ( -0.000000000000000000, 1.000000000000000000, -0.000000000000000000 ) ) ;
#113 = CARTESIAN_POINT ( 'NONE',  ( 0.000000000000000000, 11.99999999999999289, 1.249999999999987566 ) ) ;
#114 = ORIENTED_EDGE ( 'NONE', *, *, #83, .T. ) ;
#115 = ADVANCED_FACE ( 'NONE', ( #222 ), #134, .F. ) ;
#116 = CYLINDRICAL_SURFACE ( 'NONE', #267, 1.250000000000000222 ) ;
#117 =( GEOMETRIC_REPRESENTATION_CONTEXT ( 3 ) GLOBAL_UNCERTAINTY_ASSIGNED_CONTEXT ( ( #310 ) ) GLOBAL_UNIT_ASSIGNED_CONTEXT ( ( #146, #58, #34 ) ) REPRESENTATION_CONTEXT ( 'NONE', 'WORKASPACE' ) );
#118 = LINE ( 'NONE', #113, #190 ) ;
#119 = AXIS2_PLACEMENT_3D ( 'NONE', #131, #324, #242 ) ;
#120 = EDGE_LOOP ( 'NONE', ( #21, #184, #287, #61 ) ) ;
#121 = CYLINDRICAL_SURFACE ( 'NONE', #156, 3.000000000000000444 ) ;
#122 = LINE ( 'NONE', #347, #157 ) ;
#123 = EDGE_LOOP ( 'NONE', ( #23, #206 ) ) ;
#124 = FACE_OUTER_BOUND ( 'NONE', #152, .T. ) ;
#125 = AXIS2_PLACEMENT_3D ( 'NONE', #26, #336, #168 ) ;
#126 = MECHANICAL_DESIGN_GEOMETRIC_PRESENTATION_REPRESENTATION (  '', ( #199 ), #3 ) ;
#127 = PRODUCT_DEFINITION_CONTEXT ( 'detailed design', #193, 'design' ) ;
#128 = ORIENTED_EDGE ( 'NONE', *, *, #354, .F. ) ;
#129 = EDGE_LOOP ( 'NONE', ( #254, #64, #323, #16 ) ) ;
#130 = ORIENTED_EDGE ( 'NONE', *, *, #135, .F. ) ;
#131 = CARTESIAN_POINT ( 'NONE',  ( 0.000000000000000000, 11.99999999999999289, 0.000000000000000000 ) ) ;
#132 = COLOUR_RGB ( '',1.000000000000000000, 1.000000000000000000, 0.8470588235294117530 ) ;
#133 = ADVANCED_FACE ( 'NONE', ( #40 ), #181, .T. ) ;
#134 = CYLINDRICAL_SURFACE ( 'NONE', #250, 1.249999999999988232 ) ;
#135 = EDGE_CURVE ( 'NONE', #313, #258, #207, .T. ) ;
#136 = DIRECTION ( 'NONE',  ( 0.000000000000000000, 1.000000000000000000, 0.000000000000000000 ) ) ;
#137 = DIRECTION ( 'NONE',  ( -0.000000000000000000, -1.000000000000000000, -0.000000000000000000 ) ) ;
#138 = DIRECTION ( 'NONE',  ( 0.000000000000000000, 0.000000000000000000, 1.000000000000000000 ) ) ;
#139 = AXIS2_PLACEMENT_3D ( 'NONE', #266, #270, #214 ) ;
#140 = DIRECTION ( 'NONE',  ( 0.000000000000000000, 0.000000000000000000, 1.000000000000000000 ) ) ;
#141 = ORIENTED_EDGE ( 'NONE', *, *, #248, .T. ) ;
#142 = ADVANCED_FACE ( 'NONE', ( #124 ), #322, .F. ) ;
#143 = DIRECTION ( 'NONE',  ( 0.000000000000000000, 1.000000000000000000, 0.000000000000000000 ) ) ;
#144 = EDGE_CURVE ( 'NONE', #180, #271, #224, .T. ) ;
#145 = DIRECTION ( 'NONE',  ( 0.000000000000000000, 0.000000000000000000, 1.000000000000000000 ) ) ;
#146 =( LENGTH_UNIT ( ) NAMED_UNIT ( * ) SI_UNIT ( .MILLI., .METRE. ) );
#147 = ADVANCED_FACE ( 'NONE', ( #100 ), #334, .F. ) ;
#148 = CARTESIAN_POINT ( 'NONE',  ( 0.000000000000000000, 8.000000000000000000, 0.000000000000000000 ) ) ;
#149 = ADVANCED_FACE ( 'NONE', ( #352 ), #218, .F. ) ;
#150 = DIRECTION ( 'NONE',  ( 0.000000000000000000, 0.000000000000000000, -1.000000000000000000 ) ) ;
#151 = DIRECTION ( 'NONE',  ( 1.000000000000000000, 0.000000000000000000, 0.000000000000000000 ) ) ;
#152 = EDGE_LOOP ( 'NONE', ( #82, #94, #18 ) ) ;
#153 = CARTESIAN_POINT ( 'NONE',  ( 0.000000000000000000, 0.000000000000000000, 0.000000000000000000 ) ) ;
#154 = CARTESIAN_POINT ( 'NONE',  ( 3.673940397442060361E-16, 20.00000000000000000, 3.000000000000000444 ) ) ;
#155 = CARTESIAN_POINT ( 'NONE',  ( 1.530808498934177272E-16, 20.00000000000000000, -1.249999999999988232 ) ) ;
#156 = AXIS2_PLACEMENT_3D ( 'NONE', #346, #63, #294 ) ;
#157 = VECTOR ( 'NONE', #265, 1000.000000000000227 ) ;
#158 = EDGE_LOOP ( 'NONE', ( #213, #212 ) ) ;
#159 = ORIENTED_EDGE ( 'NONE', *, *, #225, .T. ) ;
#160 = AXIS2_PLACEMENT_3D ( 'NONE', #320, #173, #145 ) ;
#161 = EDGE_CURVE ( 'NONE', #14, #229, #98, .T. ) ;
#162 = DIRECTION ( 'NONE',  ( 0.000000000000000000, 1.000000000000000000, 0.000000000000000000 ) ) ;
#163 = PRODUCT_DEFINITION_FORMATION_WITH_SPECIFIED_SOURCE ( 'ANY', '', #304, .NOT_KNOWN. ) ;
#164 = DIRECTION ( 'NONE',  ( 0.000000000000000000, 1.000000000000000000, 0.000000000000000000 ) ) ;
#165 = FACE_OUTER_BOUND ( 'NONE', #56, .T. ) ;
#166 = CARTESIAN_POINT ( 'NONE',  ( 1.530808498934191817E-16, 8.000000000000000000, -1.250000000000000222 ) ) ;
#167 = CIRCLE ( 'NONE', #279, 1.250000000000000222 ) ;
#168 = DIRECTION ( 'NONE',  ( 0.000000000000000000, 0.000000000000000000, 1.000000000000000000 ) ) ;
#169 = ORIENTED_EDGE ( 'NONE', *, *, #211, .T. ) ;
#170 = MANIFOLD_SOLID_BREP ( 'M3 Gewindebohrung1', #105 ) ;
#171 = LINE ( 'NONE', #7, #331 ) ;
#172 = DIRECTION ( 'NONE',  ( 0.000000000000000000, 0.5150380749100549327, 0.8571673007021118895 ) ) ;
#173 = DIRECTION ( 'NONE',  ( -0.000000000000000000, 1.000000000000000000, -0.000000000000000000 ) ) ;
#174 = PRODUCT_CONTEXT ( 'NONE', #48, 'mechanical' ) ;
#175 = PRESENTATION_LAYER_ASSIGNMENT (  '', '', ( #76 ) ) ;
#176 = VECTOR ( 'NONE', #300, 1000.000000000000000 ) ;
#177 = PRESENTATION_STYLE_ASSIGNMENT (( #342 ) ) ;
#178 = ORIENTED_EDGE ( 'NONE', *, *, #316, .T. ) ;
#179 = ORIENTED_EDGE ( 'NONE', *, *, #135, .T. ) ;
#180 = VERTEX_POINT ( 'NONE', #36 ) ;
#181 = CYLINDRICAL_SURFACE ( 'NONE', #335, 3.000000000000000444 ) ;
#182 = EDGE_CURVE ( 'NONE', #338, #313, #284, .T. ) ;
#183 = APPLICATION_PROTOCOL_DEFINITION ( 'draft international standard', 'automotive_design', 1998, #48 ) ;
#184 = ORIENTED_EDGE ( 'NONE', *, *, #283, .T. ) ;
#185 = DIRECTION ( 'NONE',  ( 0.000000000000000000, 0.000000000000000000, 1.000000000000000000 ) ) ;
#186 = ADVANCED_FACE ( 'NONE', ( #54 ), #84, .T. ) ;
#187 = CARTESIAN_POINT ( 'NONE',  ( 0.000000000000000000, 14.50000000000000000, 0.000000000000000000 ) ) ;
#188 = ADVANCED_FACE ( 'NONE', ( #11 ), #116, .T. ) ;
#189 = DIRECTION ( 'NONE',  ( 0.000000000000000000, 0.000000000000000000, 1.000000000000000000 ) ) ;
#190 = VECTOR ( 'NONE', #172, 1000.000000000000000 ) ;
#191 = DIRECTION ( 'NONE',  ( 0.000000000000000000, 1.000000000000000000, 0.000000000000000000 ) ) ;
#192 = CARTESIAN_POINT ( 'NONE',  ( 0.000000000000000000, 20.00000000000000000, 0.000000000000000000 ) ) ;
#193 = APPLICATION_CONTEXT ( 'automotive_design' ) ;
#194 = ADVANCED_FACE ( 'NONE', ( #231 ), #121, .T. ) ;
#195 = CARTESIAN_POINT ( 'NONE',  ( 0.000000000000000000, 20.00000000000000000, -3.000000000000000444 ) ) ;
#196 = CIRCLE ( 'NONE', #125, 1.250000000000000222 ) ;
#197 = DIRECTION ( 'NONE',  ( -0.000000000000000000, 1.000000000000000000, -0.000000000000000000 ) ) ;
#198 = ORIENTED_EDGE ( 'NONE', *, *, #261, .T. ) ;
#199 = STYLED_ITEM ( 'NONE', ( #244 ), #115 ) ;
#200 = SURFACE_SIDE_STYLE ('',( #348 ) ) ;
#201 = CARTESIAN_POINT ( 'NONE',  ( 0.000000000000000000, 8.000000000000000000, 0.000000000000000000 ) ) ;
#202 = EDGE_LOOP ( 'NONE', ( #130, #297, #169, #91 ) ) ;
#203 = DIRECTION ( 'NONE',  ( 0.000000000000000000, 1.000000000000000000, 0.000000000000000000 ) ) ;
#204 = ORIENTED_EDGE ( 'NONE', *, *, #359, .F. ) ;
#205 = AXIS2_PLACEMENT_3D ( 'NONE', #306, #219, #189 ) ;
#206 = ORIENTED_EDGE ( 'NONE', *, *, #240, .T. ) ;
#207 = LINE ( 'NONE', #155, #176 ) ;
#208 = ADVANCED_BREP_SHAPE_REPRESENTATION ( 'INGUN_105502', ( #170, #215 ), #117 ) ;
#209 = EDGE_CURVE ( 'NONE', #180, #229, #38, .T. ) ;
#210 = UNCERTAINTY_MEASURE_WITH_UNIT (LENGTH_MEASURE( 1.000000000000000082E-05 ), #55, 'distance_accuracy_value', 'NONE');
#211 = EDGE_CURVE ( 'NONE', #338, #72, #252, .T. ) ;
#212 = ORIENTED_EDGE ( 'NONE', *, *, #69, .F. ) ;
#213 = ORIENTED_EDGE ( 'NONE', *, *, #316, .F. ) ;
#214 = DIRECTION ( 'NONE',  ( 0.000000000000000000, 0.000000000000000000, 1.000000000000000000 ) ) ;
#215 = AXIS2_PLACEMENT_3D ( 'NONE', #298, #71, #151 ) ;
#216 =( GEOMETRIC_REPRESENTATION_CONTEXT ( 3 ) GLOBAL_UNCERTAINTY_ASSIGNED_CONTEXT ( ( #210 ) ) GLOBAL_UNIT_ASSIGNED_CONTEXT ( ( #55, #228, #85 ) ) REPRESENTATION_CONTEXT ( 'NONE', 'WORKASPACE' ) );
#217 = EDGE_LOOP ( 'NONE', ( #204, #141, #159 ) ) ;
#218 = PLANE ( 'NONE',  #78 ) ;
#219 = DIRECTION ( 'NONE',  ( 0.000000000000000000, 1.000000000000000000, 0.000000000000000000 ) ) ;
#220 = EDGE_CURVE ( 'NONE', #351, #86, #305, .T. ) ;
#221 = CONICAL_SURFACE ( 'NONE', #43, 1.250000000000000222, 0.2629947316809194691 ) ;
#222 = FACE_OUTER_BOUND ( 'NONE', #44, .T. ) ;
#223 = PRESENTATION_LAYER_ASSIGNMENT (  '', '', ( #62 ) ) ;
#224 = CIRCLE ( 'NONE', #257, 1.250000000000000222 ) ;
#225 = EDGE_CURVE ( 'NONE', #313, #338, #357, .T. ) ;
#226 = CYLINDRICAL_SURFACE ( 'NONE', #30, 1.249999999999988232 ) ;
#227 = EDGE_LOOP ( 'NONE', ( #22, #241, #32, #198 ) ) ;
#228 =( NAMED_UNIT ( * ) PLANE_ANGLE_UNIT ( ) SI_UNIT ( $, .RADIAN. ) );
#229 = VERTEX_POINT ( 'NONE', #101 ) ;
#230 = VECTOR ( 'NONE', #112, 1000.000000000000000 ) ;
#231 = FACE_OUTER_BOUND ( 'NONE', #120, .T. ) ;
#232 = EDGE_LOOP ( 'NONE', ( #99, #45, #60, #289 ) ) ;
#233 = ORIENTED_EDGE ( 'NONE', *, *, #144, .F. ) ;
#234 = CARTESIAN_POINT ( 'NONE',  ( 0.000000000000000000, 20.00000000000000000, 0.000000000000000000 ) ) ;
#235 = VECTOR ( 'NONE', #29, 1000.000000000000000 ) ;
#236 = CIRCLE ( 'NONE', #110, 1.250000000000000222 ) ;
#237 = CARTESIAN_POINT ( 'NONE',  ( 0.000000000000000000, 14.50000000000000000, 3.000000000000000000 ) ) ;
#238 = DIRECTION ( 'NONE',  ( -0.000000000000000000, 1.000000000000000000, -0.000000000000000000 ) ) ;
#239 = CARTESIAN_POINT ( 'NONE',  ( 0.000000000000000000, 20.00000000000000000, -3.000000000000000444 ) ) ;
#240 = EDGE_CURVE ( 'NONE', #86, #351, #6, .T. ) ;
#241 = ORIENTED_EDGE ( 'NONE', *, *, #220, .F. ) ;
#242 = DIRECTION ( 'NONE',  ( 0.000000000000000000, 0.000000000000000000, 1.000000000000000000 ) ) ;
#243 = AXIS2_PLACEMENT_3D ( 'NONE', #307, #136, #185 ) ;
#244 = PRESENTATION_STYLE_ASSIGNMENT (( #276 ) ) ;
#245 = CIRCLE ( 'NONE', #301, 1.249999999999988898 ) ;
#246 = PRESENTATION_LAYER_ASSIGNMENT (  '', '', ( #199 ) ) ;
#247 = DIRECTION ( 'NONE',  ( -0.000000000000000000, 1.000000000000000000, -0.000000000000000000 ) ) ;
#248 = EDGE_CURVE ( 'NONE', #28, #313, #106, .T. ) ;
#249 = FACE_OUTER_BOUND ( 'NONE', #123, .T. ) ;
#250 = AXIS2_PLACEMENT_3D ( 'NONE', #296, #238, #92 ) ;
#251 = FACE_BOUND ( 'NONE', #344, .T. ) ;
#252 = LINE ( 'NONE', #9, #230 ) ;
#253 = CARTESIAN_POINT ( 'NONE',  ( 0.000000000000000000, 20.00000000000000000, 0.000000000000000000 ) ) ;
#254 = ORIENTED_EDGE ( 'NONE', *, *, #264, .T. ) ;
#255 = DIRECTION ( 'NONE',  ( 0.000000000000000000, 0.000000000000000000, 1.000000000000000000 ) ) ;
#256 = SURFACE_STYLE_USAGE ( .BOTH. , #109 ) ;
#257 = AXIS2_PLACEMENT_3D ( 'NONE', #24, #303, #46 ) ;
#258 = VERTEX_POINT ( 'NONE', #75 ) ;
#259 = DIRECTION ( 'NONE',  ( -0.000000000000000000, -1.000000000000000000, -0.000000000000000000 ) ) ;
#260 = ORIENTED_EDGE ( 'NONE', *, *, #261, .F. ) ;
#261 = EDGE_CURVE ( 'NONE', #229, #14, #349, .T. ) ;
#262 = FILL_AREA_STYLE_COLOUR ( '', #70 ) ;
#263 = ORIENTED_EDGE ( 'NONE', *, *, #209, .F. ) ;
#264 = EDGE_CURVE ( 'NONE', #271, #180, #196, .T. ) ;
#265 = DIRECTION ( 'NONE',  ( 0.000000000000000000, 0.9656157585206696092, 0.2599734734478725828 ) ) ;
#266 = CARTESIAN_POINT ( 'NONE',  ( 0.000000000000000000, 11.99999999999999289, 0.000000000000000000 ) ) ;
#267 = AXIS2_PLACEMENT_3D ( 'NONE', #148, #259, #15 ) ;
#268 = EDGE_CURVE ( 'NONE', #180, #35, #171, .T. ) ;
#269 = EDGE_LOOP ( 'NONE', ( #295, #233, #353, #178 ) ) ;
#270 = DIRECTION ( 'NONE',  ( -0.000000000000000000, 1.000000000000000000, -0.000000000000000000 ) ) ;
#271 = VERTEX_POINT ( 'NONE', #341 ) ;
#272 = FILL_AREA_STYLE_COLOUR ( '', #286 ) ;
#273 =( GEOMETRIC_REPRESENTATION_CONTEXT ( 3 ) GLOBAL_UNCERTAINTY_ASSIGNED_CONTEXT ( ( #274 ) ) GLOBAL_UNIT_ASSIGNED_CONTEXT ( ( #87, #33, #288 ) ) REPRESENTATION_CONTEXT ( 'NONE', 'WORKASPACE' ) );
#274 = UNCERTAINTY_MEASURE_WITH_UNIT (LENGTH_MEASURE( 1.000000000000000082E-05 ), #87, 'distance_accuracy_value', 'NONE');
#275 = DIRECTION ( 'NONE',  ( 0.000000000000000000, 0.000000000000000000, 1.000000000000000000 ) ) ;
#276 = SURFACE_STYLE_USAGE ( .BOTH. , #278 ) ;
#277 = ADVANCED_FACE ( 'NONE', ( #52 ), #226, .F. ) ;
#278 = SURFACE_SIDE_STYLE ('',( #332 ) ) ;
#279 = AXIS2_PLACEMENT_3D ( 'NONE', #337, #143, #140 ) ;
#280 = UNCERTAINTY_MEASURE_WITH_UNIT (LENGTH_MEASURE( 1.000000000000000082E-05 ), #340, 'distance_accuracy_value', 'NONE');
#281 = DIRECTION ( 'NONE',  ( 0.000000000000000000, 0.000000000000000000, 1.000000000000000000 ) ) ;
#282 = FILL_AREA_STYLE ('',( #81 ) ) ;
#283 = EDGE_CURVE ( 'NONE', #86, #14, #53, .T. ) ;
#284 = CIRCLE ( 'NONE', #160, 1.249999999999987566 ) ;
#285 = DIRECTION ( 'NONE',  ( 3.183756821211565729E-17, 0.9656157585206696092, -0.2599734734478725828 ) ) ;
#286 = COLOUR_RGB ( '',1.000000000000000000, 1.000000000000000000, 0.8470588235294117530 ) ;
#287 = ORIENTED_EDGE ( 'NONE', *, *, #161, .T. ) ;
#288 =( NAMED_UNIT ( * ) SI_UNIT ( $, .STERADIAN. ) SOLID_ANGLE_UNIT ( ) );
#289 = ORIENTED_EDGE ( 'NONE', *, *, #268, .F. ) ;
#290 = DIRECTION ( 'NONE',  ( 0.000000000000000000, 1.000000000000000000, 0.000000000000000000 ) ) ;
#291 = VECTOR ( 'NONE', #285, 1000.000000000000227 ) ;
#292 = AXIS2_PLACEMENT_3D ( 'NONE', #187, #162, #275 ) ;
#293 = CARTESIAN_POINT ( 'NONE',  ( 0.000000000000000000, 20.00000000000000000, 1.249999999999988898 ) ) ;
#294 = DIRECTION ( 'NONE',  ( 0.000000000000000000, 0.000000000000000000, -1.000000000000000000 ) ) ;
#295 = ORIENTED_EDGE ( 'NONE', *, *, #107, .F. ) ;
#296 = CARTESIAN_POINT ( 'NONE',  ( 0.000000000000000000, 20.00000000000000000, 0.000000000000000000 ) ) ;
#297 = ORIENTED_EDGE ( 'NONE', *, *, #182, .F. ) ;
#298 = CARTESIAN_POINT ( 'NONE',  ( 0.000000000000000000, 0.000000000000000000, 0.000000000000000000 ) ) ;
#299 = CARTESIAN_POINT ( 'NONE',  ( 0.000000000000000000, 8.000000000000000000, 0.000000000000000000 ) ) ;
#300 = DIRECTION ( 'NONE',  ( -0.000000000000000000, 1.000000000000000000, -0.000000000000000000 ) ) ;
#301 = AXIS2_PLACEMENT_3D ( 'NONE', #253, #10, #138 ) ;
#302 = CARTESIAN_POINT ( 'NONE',  ( 0.000000000000000000, 0.000000000000000000, -1.250000000000000222 ) ) ;
#303 = DIRECTION ( 'NONE',  ( 0.000000000000000000, 1.000000000000000000, 0.000000000000000000 ) ) ;
#304 = PRODUCT ( 'INGUN_105502', 'INGUN_105502', '', ( #174 ) ) ;
#305 = CIRCLE ( 'NONE', #243, 3.000000000000000444 ) ;
#306 = CARTESIAN_POINT ( 'NONE',  ( 0.000000000000000000, 20.00000000000000000, 0.000000000000000000 ) ) ;
#307 = CARTESIAN_POINT ( 'NONE',  ( 0.000000000000000000, 20.00000000000000000, 0.000000000000000000 ) ) ;
#308 = CARTESIAN_POINT ( 'NONE',  ( 1.530808498934176286E-16, 11.99999999999999289, -1.249999999999987566 ) ) ;
#309 = CARTESIAN_POINT ( 'NONE',  ( 1.530808498934176779E-16, 11.99999999999999289, -1.249999999999987566 ) ) ;
#310 = UNCERTAINTY_MEASURE_WITH_UNIT (LENGTH_MEASURE( 1.000000000000000082E-05 ), #146, 'distance_accuracy_value', 'NONE');
#311 = DIRECTION ( 'NONE',  ( 0.000000000000000000, 0.000000000000000000, 1.000000000000000000 ) ) ;
#312 = DIRECTION ( 'NONE',  ( 0.000000000000000000, -0.000000000000000000, 1.000000000000000000 ) ) ;
#313 = VERTEX_POINT ( 'NONE', #309 ) ;
#314 = AXIS2_PLACEMENT_3D ( 'NONE', #321, #290, #339 ) ;
#315 = VECTOR ( 'NONE', #137, 1000.000000000000000 ) ;
#316 = EDGE_CURVE ( 'NONE', #35, #111, #167, .T. ) ;
#317 = CARTESIAN_POINT ( 'NONE',  ( 0.000000000000000000, 20.00000000000000000, 0.000000000000000000 ) ) ;
#318 = PLANE ( 'NONE',  #19 ) ;
#319 = ORIENTED_EDGE ( 'NONE', *, *, #144, .T. ) ;
#320 = CARTESIAN_POINT ( 'NONE',  ( 0.000000000000000000, 11.99999999999999289, 0.000000000000000000 ) ) ;
#321 = CARTESIAN_POINT ( 'NONE',  ( 0.000000000000000000, 8.000000000000000000, 0.000000000000000000 ) ) ;
#322 = CONICAL_SURFACE ( 'NONE', #139, 1.249999999999987566, 1.029744258676653645 ) ;
#323 = ORIENTED_EDGE ( 'NONE', *, *, #161, .F. ) ;
#324 = DIRECTION ( 'NONE',  ( -0.000000000000000000, 1.000000000000000000, -0.000000000000000000 ) ) ;
#325 = CARTESIAN_POINT ( 'NONE',  ( 0.000000000000000000, 0.000000000000000000, 0.000000000000000000 ) ) ;
#326 = DIRECTION ( 'NONE',  ( 0.000000000000000000, -0.000000000000000000, 1.000000000000000000 ) ) ;
#327 = LINE ( 'NONE', #239, #31 ) ;
#328 = DIRECTION ( 'NONE',  ( 0.000000000000000000, 0.000000000000000000, 1.000000000000000000 ) ) ;
#329 = AXIS2_PLACEMENT_3D ( 'NONE', #67, #203, #255 ) ;
#330 = FACE_OUTER_BOUND ( 'NONE', #232, .T. ) ;
#331 = VECTOR ( 'NONE', #59, 1000.000000000000000 ) ;
#332 = SURFACE_STYLE_FILL_AREA ( #25 ) ;
#333 = SURFACE_STYLE_FILL_AREA ( #282 ) ;
#334 = CONICAL_SURFACE ( 'NONE', #119, 1.249999999999987566, 1.029744258676653645 ) ;
#335 = AXIS2_PLACEMENT_3D ( 'NONE', #234, #97, #42 ) ;
#336 = DIRECTION ( 'NONE',  ( 0.000000000000000000, 1.000000000000000000, 0.000000000000000000 ) ) ;
#337 = CARTESIAN_POINT ( 'NONE',  ( 0.000000000000000000, 0.000000000000000000, 0.000000000000000000 ) ) ;
#338 = VERTEX_POINT ( 'NONE', #27 ) ;
#339 = DIRECTION ( 'NONE',  ( 0.000000000000000000, 0.000000000000000000, 1.000000000000000000 ) ) ;
#340 =( LENGTH_UNIT ( ) NAMED_UNIT ( * ) SI_UNIT ( .MILLI., .METRE. ) );
#341 = CARTESIAN_POINT ( 'NONE',  ( 1.530808498934191817E-16, 8.000000000000000000, 1.250000000000000222 ) ) ;
#342 = SURFACE_STYLE_USAGE ( .BOTH. , #200 ) ;
#343 = APPLICATION_PROTOCOL_DEFINITION ( 'draft international standard', 'automotive_design', 1998, #193 ) ;
#344 = EDGE_LOOP ( 'NONE', ( #128, #356 ) ) ;
#345 = ADVANCED_FACE ( 'NONE', ( #165 ), #221, .T. ) ;
#346 = CARTESIAN_POINT ( 'NONE',  ( 0.000000000000000000, 20.00000000000000000, 0.000000000000000000 ) ) ;
#347 = CARTESIAN_POINT ( 'NONE',  ( 0.000000000000000000, 8.000000000000000000, 1.250000000000000222 ) ) ;
#348 = SURFACE_STYLE_FILL_AREA ( #17 ) ;
#349 = CIRCLE ( 'NONE', #292, 3.000000000000000444 ) ;
#350 = ADVANCED_FACE ( 'NONE', ( #251, #249 ), #318, .T. ) ;
#351 = VERTEX_POINT ( 'NONE', #195 ) ;
#352 = FACE_OUTER_BOUND ( 'NONE', #158, .T. ) ;
#353 = ORIENTED_EDGE ( 'NONE', *, *, #268, .T. ) ;
#354 = EDGE_CURVE ( 'NONE', #72, #258, #245, .T. ) ;
#355 = DIRECTION ( 'NONE',  ( -0.000000000000000000, -1.000000000000000000, -0.000000000000000000 ) ) ;
#356 = ORIENTED_EDGE ( 'NONE', *, *, #83, .F. ) ;
#357 = CIRCLE ( 'NONE', #108, 1.249999999999987566 ) ;
#358 = CARTESIAN_POINT ( 'NONE',  ( 0.000000000000000000, 11.99999999999999289, 0.000000000000000000 ) ) ;
#359 = EDGE_CURVE ( 'NONE', #28, #338, #118, .T. ) ;
ENDSEC;
END-ISO-10303-21;
