ISO-10303-21;
HEADER;
FILE_DESCRIPTION (( 'STEP AP214' ),
    '1' );
FILE_NAME ('INGUN_104132.STEP',
    '2024-08-13T11:56:12',
    ( '' ),
    ( '' ),
    'SwSTEP 2.0',
    'SolidWorks 2021',
    '' );
FILE_SCHEMA (( 'AUTOMOTIVE_DESIGN' ));
ENDSEC;

DATA;
#1 = ORIENTED_EDGE ( 'NONE', *, *, #190, .F. ) ;
#2 = DIRECTION ( 'NONE',  ( -0.000000000000000000, -1.000000000000000000, -0.000000000000000000 ) ) ;
#3 = ORIENTED_EDGE ( 'NONE', *, *, #168, .F. ) ;
#4 = MECHANICAL_DESIGN_GEOMETRIC_PRESENTATION_REPRESENTATION (  '', ( #194 ), #217 ) ;
#5 = ORIENTED_EDGE ( 'NONE', *, *, #250, .T. ) ;
#6 = DIRECTION ( 'NONE',  ( 0.000000000000000000, 0.000000000000000000, 1.000000000000000000 ) ) ;
#7 = EDGE_LOOP ( 'NONE', ( #93, #248 ) ) ;
#8 = AXIS2_PLACEMENT_3D ( 'NONE', #140, #30, #101 ) ;
#9 =( NAMED_UNIT ( * ) PLANE_ANGLE_UNIT ( ) SI_UNIT ( $, .RADIAN. ) );
#10 = DIRECTION ( 'NONE',  ( 1.000000000000000000, 0.000000000000000000, 0.000000000000000000 ) ) ;
#11 = VECTOR ( 'NONE', #211, 1000.000000000000114 ) ;
#12 = ADVANCED_FACE ( 'NONE', ( #67 ), #48, .T. ) ;
#13 = CYLINDRICAL_SURFACE ( 'NONE', #235, 1.250000000000000000 ) ;
#14 = FACE_OUTER_BOUND ( 'NONE', #76, .T. ) ;
#15 = AXIS2_PLACEMENT_3D ( 'NONE', #54, #268, #264 ) ;
#16 = CARTESIAN_POINT ( 'NONE',  ( 0.000000000000000000, -4.599999999999999645, -2.000000000000000000 ) ) ;
#17 = CARTESIAN_POINT ( 'NONE',  ( 0.000000000000000000, 4.599999999999999645, 0.000000000000000000 ) ) ;
#18 = FACE_OUTER_BOUND ( 'NONE', #225, .T. ) ;
#19 = CARTESIAN_POINT ( 'NONE',  ( 0.000000000000000000, 0.000000000000000000, 0.000000000000000000 ) ) ;
#20 = APPLICATION_CONTEXT ( 'automotive_design' ) ;
#21 = DIRECTION ( 'NONE',  ( 0.000000000000000000, 0.000000000000000000, 1.000000000000000000 ) ) ;
#22 = CARTESIAN_POINT ( 'NONE',  ( 2.449293598294706414E-16, 4.599999999999999645, 2.000000000000000000 ) ) ;
#23 = EDGE_LOOP ( 'NONE', ( #249, #223 ) ) ;
#24 = PLANE ( 'NONE',  #122 ) ;
#25 = COLOUR_RGB ( '',0.7960784313725489669, 0.8235294117647058432, 0.9372549019607843146 ) ;
#26 = ORIENTED_EDGE ( 'NONE', *, *, #178, .F. ) ;
#27 = MANIFOLD_SOLID_BREP ( 'Fase1', #206 ) ;
#28 = APPLICATION_CONTEXT ( 'automotive_design' ) ;
#29 = UNCERTAINTY_MEASURE_WITH_UNIT (LENGTH_MEASURE( 1.000000000000000082E-05 ), #164, 'distance_accuracy_value', 'NONE');
#30 = DIRECTION ( 'NONE',  ( 0.000000000000000000, 1.000000000000000000, 0.000000000000000000 ) ) ;
#31 = AXIS2_PLACEMENT_3D ( 'NONE', #53, #265, #218 ) ;
#32 = LINE ( 'NONE', #37, #63 ) ;
#33 = EDGE_CURVE ( 'NONE', #61, #78, #257, .T. ) ;
#34 = CARTESIAN_POINT ( 'NONE',  ( 0.000000000000000000, 4.599999999999999645, 0.000000000000000000 ) ) ;
#35 = CARTESIAN_POINT ( 'NONE',  ( 0.000000000000000000, 4.599999999999999645, -1.050000000000000488 ) ) ;
#36 = FACE_OUTER_BOUND ( 'NONE', #97, .T. ) ;
#37 = CARTESIAN_POINT ( 'NONE',  ( 0.000000000000000000, 0.000000000000000000, -1.250000000000000000 ) ) ;
#38 = CARTESIAN_POINT ( 'NONE',  ( 0.000000000000000000, 4.253589838486225183, 0.000000000000000000 ) ) ;
#39 = DIRECTION ( 'NONE',  ( -0.000000000000000000, -1.000000000000000000, -0.000000000000000000 ) ) ;
#40 = ORIENTED_EDGE ( 'NONE', *, *, #250, .F. ) ;
#41 = PLANE ( 'NONE',  #108 ) ;
#42 = ORIENTED_EDGE ( 'NONE', *, *, #142, .F. ) ;
#43 = ADVANCED_FACE ( 'NONE', ( #49 ), #129, .T. ) ;
#44 = DIRECTION ( 'NONE',  ( -0.000000000000000000, -1.000000000000000000, -0.000000000000000000 ) ) ;
#45 = EDGE_LOOP ( 'NONE', ( #232, #207 ) ) ;
#46 = AXIS2_PLACEMENT_3D ( 'NONE', #17, #258, #238 ) ;
#47 = ORIENTED_EDGE ( 'NONE', *, *, #106, .T. ) ;
#48 = CONICAL_SURFACE ( 'NONE', #95, 1.250000000000000000, 0.5235987755982985936 ) ;
#49 = FACE_OUTER_BOUND ( 'NONE', #162, .T. ) ;
#50 = AXIS2_PLACEMENT_3D ( 'NONE', #166, #6, #10 ) ;
#51 = PRESENTATION_LAYER_ASSIGNMENT (  '', '', ( #253 ) ) ;
#52 = DIRECTION ( 'NONE',  ( 0.000000000000000000, 0.000000000000000000, 1.000000000000000000 ) ) ;
#53 = CARTESIAN_POINT ( 'NONE',  ( 0.000000000000000000, -4.599999999999999645, 0.000000000000000000 ) ) ;
#54 = CARTESIAN_POINT ( 'NONE',  ( 0.000000000000000000, 3.100000000000000089, 0.000000000000000000 ) ) ;
#55 = ORIENTED_EDGE ( 'NONE', *, *, #121, .T. ) ;
#56 = CYLINDRICAL_SURFACE ( 'NONE', #87, 1.250000000000000000 ) ;
#57 = MECHANICAL_DESIGN_GEOMETRIC_PRESENTATION_REPRESENTATION (  '', ( #253 ), #167 ) ;
#58 = VERTEX_POINT ( 'NONE', #16 ) ;
#59 = DIRECTION ( 'NONE',  ( -0.000000000000000000, -1.000000000000000000, -0.000000000000000000 ) ) ;
#60 = ORIENTED_EDGE ( 'NONE', *, *, #121, .F. ) ;
#61 = VERTEX_POINT ( 'NONE', #214 ) ;
#62 = PRESENTATION_STYLE_ASSIGNMENT (( #125 ) ) ;
#63 = VECTOR ( 'NONE', #137, 1000.000000000000000 ) ;
#64 =( NAMED_UNIT ( * ) SI_UNIT ( $, .STERADIAN. ) SOLID_ANGLE_UNIT ( ) );
#65 = PRESENTATION_STYLE_ASSIGNMENT (( #254 ) ) ;
#66 = DIRECTION ( 'NONE',  ( -0.000000000000000000, -1.000000000000000000, -0.000000000000000000 ) ) ;
#67 = FACE_OUTER_BOUND ( 'NONE', #141, .T. ) ;
#68 = ADVANCED_FACE ( 'NONE', ( #36 ), #183, .T. ) ;
#69 = CIRCLE ( 'NONE', #31, 2.000000000000000000 ) ;
#70 = CIRCLE ( 'NONE', #193, 2.000000000000000000 ) ;
#71 = CARTESIAN_POINT ( 'NONE',  ( 2.449293598294706414E-16, -4.599999999999999645, 2.000000000000000000 ) ) ;
#72 = CIRCLE ( 'NONE', #170, 2.000000000000000000 ) ;
#73 = LINE ( 'NONE', #130, #94 ) ;
#74 = LINE ( 'NONE', #242, #86 ) ;
#75 = CARTESIAN_POINT ( 'NONE',  ( 0.000000000000000000, 3.100000000000000089, -1.249999999999999778 ) ) ;
#76 = EDGE_LOOP ( 'NONE', ( #42, #79, #138, #165 ) ) ;
#77 = CARTESIAN_POINT ( 'NONE',  ( -1.249999999999999778, 3.100000000000000089, 0.000000000000000000 ) ) ;
#78 = VERTEX_POINT ( 'NONE', #35 ) ;
#79 = ORIENTED_EDGE ( 'NONE', *, *, #240, .T. ) ;
#80 = ORIENTED_EDGE ( 'NONE', *, *, #88, .F. ) ;
#81 = APPLICATION_PROTOCOL_DEFINITION ( 'draft international standard', 'automotive_design', 1998, #28 ) ;
#82 = ADVANCED_FACE ( 'NONE', ( #14 ), #107, .T. ) ;
#83 = VECTOR ( 'NONE', #115, 1000.000000000000114 ) ;
#84 = CARTESIAN_POINT ( 'NONE',  ( 0.000000000000000000, 0.000000000000000000, 0.000000000000000000 ) ) ;
#85 = PRODUCT ( 'INGUN_104132', 'INGUN_104132', '', ( #188 ) ) ;
#86 = VECTOR ( 'NONE', #156, 1000.000000000000000 ) ;
#87 = AXIS2_PLACEMENT_3D ( 'NONE', #19, #59, #90 ) ;
#88 = EDGE_CURVE ( 'NONE', #78, #184, #192, .T. ) ;
#89 = FACE_BOUND ( 'NONE', #7, .T. ) ;
#90 = DIRECTION ( 'NONE',  ( 0.000000000000000000, 0.000000000000000000, -1.000000000000000000 ) ) ;
#91 = CARTESIAN_POINT ( 'NONE',  ( 0.000000000000000000, 4.599999999999999645, 0.000000000000000000 ) ) ;
#92 = LINE ( 'NONE', #154, #83 ) ;
#93 = ORIENTED_EDGE ( 'NONE', *, *, #168, .T. ) ;
#94 = VECTOR ( 'NONE', #39, 1000.000000000000000 ) ;
#95 = AXIS2_PLACEMENT_3D ( 'NONE', #186, #66, #146 ) ;
#96 = ORIENTED_EDGE ( 'NONE', *, *, #155, .F. ) ;
#97 = EDGE_LOOP ( 'NONE', ( #199, #227, #229, #80 ) ) ;
#98 = SHAPE_DEFINITION_REPRESENTATION ( #151, #219 ) ;
#99 = AXIS2_PLACEMENT_3D ( 'NONE', #212, #215, #110 ) ;
#100 = ADVANCED_FACE ( 'NONE', ( #104 ), #13, .T. ) ;
#101 = DIRECTION ( 'NONE',  ( 0.000000000000000000, -0.000000000000000000, 1.000000000000000000 ) ) ;
#102 = UNCERTAINTY_MEASURE_WITH_UNIT (LENGTH_MEASURE( 1.000000000000000082E-05 ), #144, 'distance_accuracy_value', 'NONE');
#103 = CARTESIAN_POINT ( 'NONE',  ( 0.000000000000000000, 4.599999999999999645, 0.000000000000000000 ) ) ;
#104 = FACE_OUTER_BOUND ( 'NONE', #201, .T. ) ;
#105 = CIRCLE ( 'NONE', #160, 1.249999999999999778 ) ;
#106 = EDGE_CURVE ( 'NONE', #246, #58, #69, .T. ) ;
#107 = CYLINDRICAL_SURFACE ( 'NONE', #46, 2.000000000000000000 ) ;
#108 = AXIS2_PLACEMENT_3D ( 'NONE', #77, #181, #111 ) ;
#109 = UNCERTAINTY_MEASURE_WITH_UNIT (LENGTH_MEASURE( 1.000000000000000082E-05 ), #143, 'distance_accuracy_value', 'NONE');
#110 = DIRECTION ( 'NONE',  ( 0.000000000000000000, 0.000000000000000000, -1.000000000000000000 ) ) ;
#111 = DIRECTION ( 'NONE',  ( 0.000000000000000000, -0.000000000000000000, 1.000000000000000000 ) ) ;
#112 = FACE_OUTER_BOUND ( 'NONE', #23, .T. ) ;
#113 = ORIENTED_EDGE ( 'NONE', *, *, #171, .F. ) ;
#114 = CIRCLE ( 'NONE', #174, 1.249999999999999778 ) ;
#115 = DIRECTION ( 'NONE',  ( 6.123233995736763571E-17, -0.8660254037844387076, 0.4999999999999997224 ) ) ;
#116 = CARTESIAN_POINT ( 'NONE',  ( 0.000000000000000000, 4.253589838486225183, -1.250000000000000000 ) ) ;
#117 = EDGE_LOOP ( 'NONE', ( #120, #5, #3, #26 ) ) ;
#118 = PRODUCT_DEFINITION ( 'UNKNOWN', '', #134, #205 ) ;
#119 = DIRECTION ( 'NONE',  ( 0.000000000000000000, -0.000000000000000000, 1.000000000000000000 ) ) ;
#120 = ORIENTED_EDGE ( 'NONE', *, *, #149, .T. ) ;
#121 = EDGE_CURVE ( 'NONE', #78, #61, #216, .T. ) ;
#122 = AXIS2_PLACEMENT_3D ( 'NONE', #91, #176, #119 ) ;
#123 = COLOUR_RGB ( '',0.7960784313725489669, 0.8235294117647058432, 0.9372549019607843146 ) ;
#124 = ORIENTED_EDGE ( 'NONE', *, *, #139, .T. ) ;
#125 = SURFACE_STYLE_USAGE ( .BOTH. , #189 ) ;
#126 =( NAMED_UNIT ( * ) SI_UNIT ( $, .STERADIAN. ) SOLID_ANGLE_UNIT ( ) );
#127 = CIRCLE ( 'NONE', #153, 1.250000000000000000 ) ;
#128 = CARTESIAN_POINT ( 'NONE',  ( 0.000000000000000000, 4.253589838486225183, -1.250000000000000000 ) ) ;
#129 = CYLINDRICAL_SURFACE ( 'NONE', #241, 2.000000000000000000 ) ;
#130 = CARTESIAN_POINT ( 'NONE',  ( 0.000000000000000000, 4.599999999999999645, -2.000000000000000000 ) ) ;
#131 = CARTESIAN_POINT ( 'NONE',  ( 0.000000000000000000, 3.100000000000000089, 0.000000000000000000 ) ) ;
#132 = CARTESIAN_POINT ( 'NONE',  ( 0.000000000000000000, 4.253589838486225183, 0.000000000000000000 ) ) ;
#133 = VERTEX_POINT ( 'NONE', #226 ) ;
#134 = PRODUCT_DEFINITION_FORMATION_WITH_SPECIFIED_SOURCE ( 'ANY', '', #85, .NOT_KNOWN. ) ;
#135 = DIRECTION ( 'NONE',  ( 0.000000000000000000, 0.000000000000000000, -1.000000000000000000 ) ) ;
#136 = VERTEX_POINT ( 'NONE', #200 ) ;
#137 = DIRECTION ( 'NONE',  ( -0.000000000000000000, -1.000000000000000000, -0.000000000000000000 ) ) ;
#138 = ORIENTED_EDGE ( 'NONE', *, *, #171, .T. ) ;
#139 = EDGE_CURVE ( 'NONE', #136, #184, #230, .T. ) ;
#140 = CARTESIAN_POINT ( 'NONE',  ( 0.000000000000000000, -4.599999999999999645, 0.000000000000000000 ) ) ;
#141 = EDGE_LOOP ( 'NONE', ( #1, #60, #269, #197 ) ) ;
#142 = EDGE_CURVE ( 'NONE', #133, #246, #270, .T. ) ;
#143 =( LENGTH_UNIT ( ) NAMED_UNIT ( * ) SI_UNIT ( .MILLI., .METRE. ) );
#144 =( LENGTH_UNIT ( ) NAMED_UNIT ( * ) SI_UNIT ( .MILLI., .METRE. ) );
#145 = FILL_AREA_STYLE ('',( #233 ) ) ;
#146 = DIRECTION ( 'NONE',  ( 0.000000000000000000, 0.000000000000000000, -1.000000000000000000 ) ) ;
#147 = AXIS2_PLACEMENT_3D ( 'NONE', #132, #180, #21 ) ;
#148 = PRODUCT_RELATED_PRODUCT_CATEGORY ( 'part', '', ( #85 ) ) ;
#149 = EDGE_CURVE ( 'NONE', #184, #136, #127, .T. ) ;
#150 = ADVANCED_FACE ( 'NONE', ( #89, #112 ), #41, .T. ) ;
#151 = PRODUCT_DEFINITION_SHAPE ( 'NONE', 'NONE',  #118 ) ;
#152 = DIRECTION ( 'NONE',  ( 0.000000000000000000, 0.000000000000000000, 1.000000000000000000 ) ) ;
#153 = AXIS2_PLACEMENT_3D ( 'NONE', #38, #2, #52 ) ;
#154 = CARTESIAN_POINT ( 'NONE',  ( 1.530808498934191571E-16, 4.253589838486225183, 1.250000000000000000 ) ) ;
#155 = EDGE_CURVE ( 'NONE', #203, #159, #105, .T. ) ;
#156 = DIRECTION ( 'NONE',  ( -0.000000000000000000, -1.000000000000000000, -0.000000000000000000 ) ) ;
#157 = VERTEX_POINT ( 'NONE', #221 ) ;
#158 = DIRECTION ( 'NONE',  ( -0.000000000000000000, -1.000000000000000000, -0.000000000000000000 ) ) ;
#159 = VERTEX_POINT ( 'NONE', #75 ) ;
#160 = AXIS2_PLACEMENT_3D ( 'NONE', #131, #202, #161 ) ;
#161 = DIRECTION ( 'NONE',  ( 0.000000000000000000, 0.000000000000000000, -1.000000000000000000 ) ) ;
#162 = EDGE_LOOP ( 'NONE', ( #252, #163, #47, #113 ) ) ;
#163 = ORIENTED_EDGE ( 'NONE', *, *, #142, .T. ) ;
#164 =( LENGTH_UNIT ( ) NAMED_UNIT ( * ) SI_UNIT ( .MILLI., .METRE. ) );
#165 = ORIENTED_EDGE ( 'NONE', *, *, #208, .T. ) ;
#166 = CARTESIAN_POINT ( 'NONE',  ( 0.000000000000000000, 0.000000000000000000, 0.000000000000000000 ) ) ;
#167 =( GEOMETRIC_REPRESENTATION_CONTEXT ( 3 ) GLOBAL_UNCERTAINTY_ASSIGNED_CONTEXT ( ( #109 ) ) GLOBAL_UNIT_ASSIGNED_CONTEXT ( ( #143, #236, #126 ) ) REPRESENTATION_CONTEXT ( 'NONE', 'WORKASPACE' ) );
#168 = EDGE_CURVE ( 'NONE', #159, #203, #114, .T. ) ;
#169 = SURFACE_SIDE_STYLE ('',( #209 ) ) ;
#170 = AXIS2_PLACEMENT_3D ( 'NONE', #198, #44, #179 ) ;
#171 = EDGE_CURVE ( 'NONE', #157, #58, #73, .T. ) ;
#172 = AXIS2_PLACEMENT_3D ( 'NONE', #103, #239, #175 ) ;
#173 = DIRECTION ( 'NONE',  ( -0.000000000000000000, -1.000000000000000000, -0.000000000000000000 ) ) ;
#174 = AXIS2_PLACEMENT_3D ( 'NONE', #224, #158, #135 ) ;
#175 = DIRECTION ( 'NONE',  ( 0.000000000000000000, 0.000000000000000000, 1.000000000000000000 ) ) ;
#176 = DIRECTION ( 'NONE',  ( 0.000000000000000000, 1.000000000000000000, 0.000000000000000000 ) ) ;
#177 = DIRECTION ( 'NONE',  ( 0.000000000000000000, 0.000000000000000000, 1.000000000000000000 ) ) ;
#178 = EDGE_CURVE ( 'NONE', #184, #159, #32, .T. ) ;
#179 = DIRECTION ( 'NONE',  ( 0.000000000000000000, 0.000000000000000000, -1.000000000000000000 ) ) ;
#180 = DIRECTION ( 'NONE',  ( -0.000000000000000000, -1.000000000000000000, -0.000000000000000000 ) ) ;
#181 = DIRECTION ( 'NONE',  ( 0.000000000000000000, 1.000000000000000000, 0.000000000000000000 ) ) ;
#182 = ORIENTED_EDGE ( 'NONE', *, *, #178, .T. ) ;
#183 = CONICAL_SURFACE ( 'NONE', #99, 1.250000000000000000, 0.5235987755982985936 ) ;
#184 = VERTEX_POINT ( 'NONE', #116 ) ;
#185 = PLANE ( 'NONE',  #8 ) ;
#186 = CARTESIAN_POINT ( 'NONE',  ( 0.000000000000000000, 4.253589838486225183, 0.000000000000000000 ) ) ;
#187 = ORIENTED_EDGE ( 'NONE', *, *, #33, .T. ) ;
#188 = PRODUCT_CONTEXT ( 'NONE', #28, 'mechanical' ) ;
#189 = SURFACE_SIDE_STYLE ('',( #237 ) ) ;
#190 = EDGE_CURVE ( 'NONE', #61, #136, #92, .T. ) ;
#191 =( NAMED_UNIT ( * ) SI_UNIT ( $, .STERADIAN. ) SOLID_ANGLE_UNIT ( ) );
#192 = LINE ( 'NONE', #128, #11 ) ;
#193 = AXIS2_PLACEMENT_3D ( 'NONE', #220, #195, #177 ) ;
#194 = STYLED_ITEM ( 'NONE', ( #62 ), #27 ) ;
#195 = DIRECTION ( 'NONE',  ( 0.000000000000000000, 1.000000000000000000, 0.000000000000000000 ) ) ;
#196 = CARTESIAN_POINT ( 'NONE',  ( 0.000000000000000000, 4.599999999999999645, 0.000000000000000000 ) ) ;
#197 = ORIENTED_EDGE ( 'NONE', *, *, #139, .F. ) ;
#198 = CARTESIAN_POINT ( 'NONE',  ( 0.000000000000000000, 3.100000000000000089, 0.000000000000000000 ) ) ;
#199 = ORIENTED_EDGE ( 'NONE', *, *, #33, .F. ) ;
#200 = CARTESIAN_POINT ( 'NONE',  ( 1.530808498934191571E-16, 4.253589838486225183, 1.250000000000000000 ) ) ;
#201 = EDGE_LOOP ( 'NONE', ( #40, #124, #182, #96 ) ) ;
#202 = DIRECTION ( 'NONE',  ( -0.000000000000000000, -1.000000000000000000, -0.000000000000000000 ) ) ;
#203 = VERTEX_POINT ( 'NONE', #247 ) ;
#204 = FACE_OUTER_BOUND ( 'NONE', #45, .T. ) ;
#205 = PRODUCT_DEFINITION_CONTEXT ( 'detailed design', #20, 'design' ) ;
#206 = CLOSED_SHELL ( 'NONE', ( #68, #210, #43, #82, #263, #100, #150, #231, #12 ) ) ;
#207 = ORIENTED_EDGE ( 'NONE', *, *, #106, .F. ) ;
#208 = EDGE_CURVE ( 'NONE', #58, #246, #70, .T. ) ;
#209 = SURFACE_STYLE_FILL_AREA ( #145 ) ;
#210 = ADVANCED_FACE ( 'NONE', ( #245 ), #56, .T. ) ;
#211 = DIRECTION ( 'NONE',  ( 0.000000000000000000, -0.8660254037844387076, -0.4999999999999997224 ) ) ;
#212 = CARTESIAN_POINT ( 'NONE',  ( 0.000000000000000000, 4.253589838486225183, 0.000000000000000000 ) ) ;
#213 =( GEOMETRIC_REPRESENTATION_CONTEXT ( 3 ) GLOBAL_UNCERTAINTY_ASSIGNED_CONTEXT ( ( #29 ) ) GLOBAL_UNIT_ASSIGNED_CONTEXT ( ( #164, #9, #64 ) ) REPRESENTATION_CONTEXT ( 'NONE', 'WORKASPACE' ) );
#214 = CARTESIAN_POINT ( 'NONE',  ( 1.408343819019456521E-16, 4.599999999999999645, 1.050000000000000488 ) ) ;
#215 = DIRECTION ( 'NONE',  ( -0.000000000000000000, -1.000000000000000000, -0.000000000000000000 ) ) ;
#216 = CIRCLE ( 'NONE', #261, 1.050000000000000488 ) ;
#217 =( GEOMETRIC_REPRESENTATION_CONTEXT ( 3 ) GLOBAL_UNCERTAINTY_ASSIGNED_CONTEXT ( ( #102 ) ) GLOBAL_UNIT_ASSIGNED_CONTEXT ( ( #144, #234, #191 ) ) REPRESENTATION_CONTEXT ( 'NONE', 'WORKASPACE' ) );
#218 = DIRECTION ( 'NONE',  ( 0.000000000000000000, 0.000000000000000000, 1.000000000000000000 ) ) ;
#219 = ADVANCED_BREP_SHAPE_REPRESENTATION ( 'INGUN_104132', ( #27, #50 ), #213 ) ;
#220 = CARTESIAN_POINT ( 'NONE',  ( 0.000000000000000000, -4.599999999999999645, 0.000000000000000000 ) ) ;
#221 = CARTESIAN_POINT ( 'NONE',  ( 0.000000000000000000, 3.100000000000000089, -2.000000000000000000 ) ) ;
#222 = EDGE_CURVE ( 'NONE', #157, #133, #72, .T. ) ;
#223 = ORIENTED_EDGE ( 'NONE', *, *, #240, .F. ) ;
#224 = CARTESIAN_POINT ( 'NONE',  ( 0.000000000000000000, 3.100000000000000089, 0.000000000000000000 ) ) ;
#225 = EDGE_LOOP ( 'NONE', ( #55, #187 ) ) ;
#226 = CARTESIAN_POINT ( 'NONE',  ( 2.449293598294706414E-16, 3.100000000000000089, 2.000000000000000000 ) ) ;
#227 = ORIENTED_EDGE ( 'NONE', *, *, #190, .T. ) ;
#228 = APPLICATION_PROTOCOL_DEFINITION ( 'draft international standard', 'automotive_design', 1998, #20 ) ;
#229 = ORIENTED_EDGE ( 'NONE', *, *, #149, .F. ) ;
#230 = CIRCLE ( 'NONE', #147, 1.250000000000000000 ) ;
#231 = ADVANCED_FACE ( 'NONE', ( #18 ), #24, .T. ) ;
#232 = ORIENTED_EDGE ( 'NONE', *, *, #208, .F. ) ;
#233 = FILL_AREA_STYLE_COLOUR ( '', #25 ) ;
#234 =( NAMED_UNIT ( * ) PLANE_ANGLE_UNIT ( ) SI_UNIT ( $, .RADIAN. ) );
#235 = AXIS2_PLACEMENT_3D ( 'NONE', #84, #173, #259 ) ;
#236 =( NAMED_UNIT ( * ) PLANE_ANGLE_UNIT ( ) SI_UNIT ( $, .RADIAN. ) );
#237 = SURFACE_STYLE_FILL_AREA ( #255 ) ;
#238 = DIRECTION ( 'NONE',  ( 0.000000000000000000, 0.000000000000000000, -1.000000000000000000 ) ) ;
#239 = DIRECTION ( 'NONE',  ( 0.000000000000000000, 1.000000000000000000, 0.000000000000000000 ) ) ;
#240 = EDGE_CURVE ( 'NONE', #133, #157, #266, .T. ) ;
#241 = AXIS2_PLACEMENT_3D ( 'NONE', #34, #260, #262 ) ;
#242 = CARTESIAN_POINT ( 'NONE',  ( 1.530808498934191571E-16, 0.000000000000000000, 1.250000000000000000 ) ) ;
#243 = DIRECTION ( 'NONE',  ( 0.000000000000000000, 1.000000000000000000, 0.000000000000000000 ) ) ;
#244 = DIRECTION ( 'NONE',  ( -0.000000000000000000, -1.000000000000000000, -0.000000000000000000 ) ) ;
#245 = FACE_OUTER_BOUND ( 'NONE', #117, .T. ) ;
#246 = VERTEX_POINT ( 'NONE', #71 ) ;
#247 = CARTESIAN_POINT ( 'NONE',  ( 1.530808498934191571E-16, 3.100000000000000089, 1.249999999999999778 ) ) ;
#248 = ORIENTED_EDGE ( 'NONE', *, *, #155, .T. ) ;
#249 = ORIENTED_EDGE ( 'NONE', *, *, #222, .F. ) ;
#250 = EDGE_CURVE ( 'NONE', #136, #203, #74, .T. ) ;
#251 = FILL_AREA_STYLE_COLOUR ( '', #123 ) ;
#252 = ORIENTED_EDGE ( 'NONE', *, *, #222, .T. ) ;
#253 = STYLED_ITEM ( 'NONE', ( #65 ), #219 ) ;
#254 = SURFACE_STYLE_USAGE ( .BOTH. , #169 ) ;
#255 = FILL_AREA_STYLE ('',( #251 ) ) ;
#256 = VECTOR ( 'NONE', #244, 1000.000000000000000 ) ;
#257 = CIRCLE ( 'NONE', #172, 1.050000000000000488 ) ;
#258 = DIRECTION ( 'NONE',  ( -0.000000000000000000, -1.000000000000000000, -0.000000000000000000 ) ) ;
#259 = DIRECTION ( 'NONE',  ( 0.000000000000000000, 0.000000000000000000, -1.000000000000000000 ) ) ;
#260 = DIRECTION ( 'NONE',  ( -0.000000000000000000, -1.000000000000000000, -0.000000000000000000 ) ) ;
#261 = AXIS2_PLACEMENT_3D ( 'NONE', #196, #243, #152 ) ;
#262 = DIRECTION ( 'NONE',  ( 0.000000000000000000, 0.000000000000000000, -1.000000000000000000 ) ) ;
#263 = ADVANCED_FACE ( 'NONE', ( #204 ), #185, .F. ) ;
#264 = DIRECTION ( 'NONE',  ( 0.000000000000000000, 0.000000000000000000, -1.000000000000000000 ) ) ;
#265 = DIRECTION ( 'NONE',  ( 0.000000000000000000, 1.000000000000000000, 0.000000000000000000 ) ) ;
#266 = CIRCLE ( 'NONE', #15, 2.000000000000000000 ) ;
#267 = PRESENTATION_LAYER_ASSIGNMENT (  '', '', ( #194 ) ) ;
#268 = DIRECTION ( 'NONE',  ( -0.000000000000000000, -1.000000000000000000, -0.000000000000000000 ) ) ;
#269 = ORIENTED_EDGE ( 'NONE', *, *, #88, .T. ) ;
#270 = LINE ( 'NONE', #22, #256 ) ;
ENDSEC;
END-ISO-10303-21;
