ISO-10303-21;
HEADER;
FILE_DESCRIPTION (( 'STEP AP214' ),
    '1' );
FILE_NAME ('2229~6.STEP',
    '2019-03-05T11:28:11',
    ( '' ),
    ( '' ),
    'SwSTEP 2.0',
    'SolidWorks 2018',
    '' );
FILE_SCHEMA (( 'AUTOMOTIVE_DESIGN' ));
ENDSEC;

DATA;
#1 = EDGE_CURVE ( 'NONE', #78, #236, #187, .T. ) ;
#2 = DIRECTION ( 'NONE',  ( -1.224646799147353207E-16, 0.0000000000000000000, -1.000000000000000000 ) ) ;
#3 = VERTEX_POINT ( 'NONE', #311 ) ;
#4 = DIRECTION ( 'NONE',  ( 1.000000000000000000, 0.0000000000000000000, -1.224646799147353207E-16 ) ) ;
#5 = CIRCLE ( 'NONE', #207, 1.649999999999996581 ) ;
#6 = ORIENTED_EDGE ( 'NONE', *, *, #80, .T. ) ;
#7 = APPLICATION_CONTEXT ( 'automotive_design' ) ;
#8 = ORIENTED_EDGE ( 'NONE', *, *, #201, .F. ) ;
#9 = EDGE_CURVE ( 'NONE', #3, #324, #125, .T. ) ;
#10 = CARTESIAN_POINT ( 'NONE',  ( 0.0000000000000000000, 2.000000000000013323, 0.0000000000000000000 ) ) ;
#11 = COLOUR_RGB ( '',0.8666666666666666963, 0.8666666666666666963, 1.000000000000000000 ) ;
#12 = AXIS2_PLACEMENT_3D ( 'NONE', #179, #204, #43 ) ;
#13 = DIRECTION ( 'NONE',  ( -0.0000000000000000000, 1.000000000000000000, -0.0000000000000000000 ) ) ;
#14 = DIRECTION ( 'NONE',  ( 0.0000000000000000000, 0.0000000000000000000, -1.000000000000000000 ) ) ;
#15 = CARTESIAN_POINT ( 'NONE',  ( 0.0000000000000000000, 30.00000000000000000, 0.0000000000000000000 ) ) ;
#16 = DIRECTION ( 'NONE',  ( 0.0000000000000000000, 1.000000000000000000, 0.0000000000000000000 ) ) ;
#17 = DIRECTION ( 'NONE',  ( 0.0000000000000000000, 0.0000000000000000000, 1.000000000000000000 ) ) ;
#18 = TOROIDAL_SURFACE ( 'NONE', #287, 2.000000000000000000, 2.000000000000000000 ) ;
#19 = SURFACE_SIDE_STYLE ('',( #308 ) ) ;
#20 = CARTESIAN_POINT ( 'NONE',  ( 0.0000000000000000000, 2.000000000000013323, 0.0000000000000000000 ) ) ;
#21 = VERTEX_POINT ( 'NONE', #89 ) ;
#22 = SHAPE_DEFINITION_REPRESENTATION ( #149, #57 ) ;
#23 = ORIENTED_EDGE ( 'NONE', *, *, #264, .T. ) ;
#24 = DIRECTION ( 'NONE',  ( 0.0000000000000000000, 0.0000000000000000000, -1.000000000000000000 ) ) ;
#25 = ADVANCED_FACE ( 'NONE', ( #142 ), #18, .T. ) ;
#26 = EDGE_CURVE ( 'NONE', #286, #210, #256, .T. ) ;
#27 = DIRECTION ( 'NONE',  ( -0.0000000000000000000, -1.000000000000000000, -0.0000000000000000000 ) ) ;
#28 = COLOUR_RGB ( '',0.5019607843137254832, 0.5019607843137254832, 0.5019607843137254832 ) ;
#29 = CARTESIAN_POINT ( 'NONE',  ( 0.0000000000000000000, 30.00000000000000000, -4.000000000000000000 ) ) ;
#30 = AXIS2_PLACEMENT_3D ( 'NONE', #49, #262, #309 ) ;
#31 = ORIENTED_EDGE ( 'NONE', *, *, #109, .F. ) ;
#32 = VECTOR ( 'NONE', #195, 1000.000000000000000 ) ;
#33 = EDGE_CURVE ( 'NONE', #3, #21, #39, .T. ) ;
#34 = DIRECTION ( 'NONE',  ( 0.0000000000000000000, 0.0000000000000000000, -1.000000000000000000 ) ) ;
#35 = ORIENTED_EDGE ( 'NONE', *, *, #95, .T. ) ;
#36 = CARTESIAN_POINT ( 'NONE',  ( 0.0000000000000000000, 0.0000000000000000000, 0.0000000000000000000 ) ) ;
#37 = MECHANICAL_DESIGN_GEOMETRIC_PRESENTATION_REPRESENTATION (  '', ( #237 ), #239 ) ;
#38 = CARTESIAN_POINT ( 'NONE',  ( 2.020667218593128564E-16, 13.99999999999999822, -1.649999999999996581 ) ) ;
#39 = LINE ( 'NONE', #290, #32 ) ;
#40 = UNCERTAINTY_MEASURE_WITH_UNIT (LENGTH_MEASURE( 1.000000000000000082E-05 ), #74, 'distance_accuracy_value', 'NONE');
#41 = DIRECTION ( 'NONE',  ( -0.0000000000000000000, 1.000000000000000000, -0.0000000000000000000 ) ) ;
#42 = AXIS2_PLACEMENT_3D ( 'NONE', #206, #223, #17 ) ;
#43 = DIRECTION ( 'NONE',  ( 0.0000000000000000000, 0.0000000000000000000, -1.000000000000000000 ) ) ;
#44 = DIRECTION ( 'NONE',  ( 0.0000000000000000000, 0.0000000000000000000, -1.000000000000000000 ) ) ;
#45 = PRESENTATION_STYLE_ASSIGNMENT (( #240 ) ) ;
#46 = EDGE_CURVE ( 'NONE', #210, #286, #244, .T. ) ;
#47 = ORIENTED_EDGE ( 'NONE', *, *, #303, .F. ) ;
#48 = FILL_AREA_STYLE ('',( #258 ) ) ;
#49 = CARTESIAN_POINT ( 'NONE',  ( 0.0000000000000000000, 0.0000000000000000000, 0.0000000000000000000 ) ) ;
#50 = EDGE_CURVE ( 'NONE', #324, #298, #136, .T. ) ;
#51 = DIRECTION ( 'NONE',  ( -0.0000000000000000000, 1.000000000000000000, -0.0000000000000000000 ) ) ;
#52 = CIRCLE ( 'NONE', #42, 2.000000000000000000 ) ;
#53 =( GEOMETRIC_REPRESENTATION_CONTEXT ( 3 ) GLOBAL_UNCERTAINTY_ASSIGNED_CONTEXT ( ( #172 ) ) GLOBAL_UNIT_ASSIGNED_CONTEXT ( ( #227, #297, #67 ) ) REPRESENTATION_CONTEXT ( 'NONE', 'WORKASPACE' ) );
#54 =( LENGTH_UNIT ( ) NAMED_UNIT ( * ) SI_UNIT ( .MILLI., .METRE. ) );
#55 = EDGE_CURVE ( 'NONE', #298, #21, #114, .T. ) ;
#56 = ORIENTED_EDGE ( 'NONE', *, *, #33, .T. ) ;
#57 = ADVANCED_BREP_SHAPE_REPRESENTATION ( '2229~6', ( #58, #30 ), #253 ) ;
#58 = MANIFOLD_SOLID_BREP ( 'M4 Gewindebohrung1', #269 ) ;
#59 = AXIS2_PLACEMENT_3D ( 'NONE', #20, #157, #98 ) ;
#60 = CIRCLE ( 'NONE', #158, 1.649999999999989919 ) ;
#61 = ORIENTED_EDGE ( 'NONE', *, *, #275, .F. ) ;
#62 = FILL_AREA_STYLE_COLOUR ( '', #28 ) ;
#63 = CARTESIAN_POINT ( 'NONE',  ( 0.0000000000000000000, 0.0000000000000000000, 0.0000000000000000000 ) ) ;
#64 = CYLINDRICAL_SURFACE ( 'NONE', #12, 4.000000000000000000 ) ;
#65 = SURFACE_SIDE_STYLE ('',( #235 ) ) ;
#66 = VERTEX_POINT ( 'NONE', #314 ) ;
#67 =( NAMED_UNIT ( * ) SI_UNIT ( $, .STERADIAN. ) SOLID_ANGLE_UNIT ( ) );
#68 =( GEOMETRIC_REPRESENTATION_CONTEXT ( 3 ) GLOBAL_UNCERTAINTY_ASSIGNED_CONTEXT ( ( #115 ) ) GLOBAL_UNIT_ASSIGNED_CONTEXT ( ( #305, #233, #159 ) ) REPRESENTATION_CONTEXT ( 'NONE', 'WORKASPACE' ) );
#69 = PRODUCT_DEFINITION_CONTEXT ( 'detailed design', #7, 'design' ) ;
#70 = SURFACE_STYLE_FILL_AREA ( #48 ) ;
#71 = EDGE_CURVE ( 'NONE', #131, #3, #260, .T. ) ;
#72 = VECTOR ( 'NONE', #219, 1000.000000000000000 ) ;
#73 = EDGE_LOOP ( 'NONE', ( #76, #182 ) ) ;
#74 =( LENGTH_UNIT ( ) NAMED_UNIT ( * ) SI_UNIT ( .MILLI., .METRE. ) );
#75 = CARTESIAN_POINT ( 'NONE',  ( 2.449293598294706414E-16, 2.000000000000000000, 2.000000000000000000 ) ) ;
#76 = ORIENTED_EDGE ( 'NONE', *, *, #26, .T. ) ;
#77 = MECHANICAL_DESIGN_GEOMETRIC_PRESENTATION_REPRESENTATION (  '', ( #232 ), #53 ) ;
#78 = VERTEX_POINT ( 'NONE', #267 ) ;
#79 = DIRECTION ( 'NONE',  ( 0.0000000000000000000, 0.0000000000000000000, -1.000000000000000000 ) ) ;
#80 = EDGE_CURVE ( 'NONE', #288, #78, #173, .T. ) ;
#81 =( NAMED_UNIT ( * ) SI_UNIT ( $, .STERADIAN. ) SOLID_ANGLE_UNIT ( ) );
#82 = CIRCLE ( 'NONE', #185, 2.000000000000000000 ) ;
#83 = AXIS2_PLACEMENT_3D ( 'NONE', #321, #16, #200 ) ;
#84 = PRODUCT_DEFINITION ( 'UNKNOWN', '', #120, #69 ) ;
#85 = ORIENTED_EDGE ( 'NONE', *, *, #201, .T. ) ;
#86 = ORIENTED_EDGE ( 'NONE', *, *, #264, .F. ) ;
#87 = FACE_OUTER_BOUND ( 'NONE', #118, .T. ) ;
#88 =( LENGTH_UNIT ( ) NAMED_UNIT ( * ) SI_UNIT ( .MILLI., .METRE. ) );
#89 = CARTESIAN_POINT ( 'NONE',  ( 2.020667218593122648E-16, 30.00000000000000000, -1.649999999999989919 ) ) ;
#90 = ORIENTED_EDGE ( 'NONE', *, *, #9, .T. ) ;
#91 = ORIENTED_EDGE ( 'NONE', *, *, #71, .T. ) ;
#92 = STYLED_ITEM ( 'NONE', ( #45 ), #58 ) ;
#93 = DIRECTION ( 'NONE',  ( -0.0000000000000000000, 1.000000000000000000, -0.0000000000000000000 ) ) ;
#94 = DIRECTION ( 'NONE',  ( 0.0000000000000000000, -1.000000000000000000, -0.0000000000000000000 ) ) ;
#95 = EDGE_CURVE ( 'NONE', #78, #286, #52, .T. ) ;
#96 = CARTESIAN_POINT ( 'NONE',  ( -4.161697628434041873E-15, 13.00857997860452286, 0.0000000000000000000 ) ) ;
#97 = PRESENTATION_LAYER_ASSIGNMENT (  '', '', ( #214 ) ) ;
#98 = DIRECTION ( 'NONE',  ( 0.0000000000000000000, 0.0000000000000000000, -1.000000000000000000 ) ) ;
#99 = PRESENTATION_LAYER_ASSIGNMENT (  '', '', ( #237 ) ) ;
#100 = ORIENTED_EDGE ( 'NONE', *, *, #246, .F. ) ;
#101 = EDGE_LOOP ( 'NONE', ( #160, #23, #216, #230 ) ) ;
#102 =( NAMED_UNIT ( * ) PLANE_ANGLE_UNIT ( ) SI_UNIT ( $, .RADIAN. ) );
#103 = CARTESIAN_POINT ( 'NONE',  ( 0.0000000000000000000, 13.99999999999999822, 0.0000000000000000000 ) ) ;
#104 = ADVANCED_FACE ( 'NONE', ( #163 ), #197, .T. ) ;
#105 = APPLICATION_PROTOCOL_DEFINITION ( 'draft international standard', 'automotive_design', 1998, #257 ) ;
#106 =( GEOMETRIC_REPRESENTATION_CONTEXT ( 3 ) GLOBAL_UNCERTAINTY_ASSIGNED_CONTEXT ( ( #122 ) ) GLOBAL_UNIT_ASSIGNED_CONTEXT ( ( #88, #268, #117 ) ) REPRESENTATION_CONTEXT ( 'NONE', 'WORKASPACE' ) );
#107 = FACE_OUTER_BOUND ( 'NONE', #220, .T. ) ;
#108 = UNCERTAINTY_MEASURE_WITH_UNIT (LENGTH_MEASURE( 1.000000000000000082E-05 ), #54, 'distance_accuracy_value', 'NONE');
#109 = EDGE_CURVE ( 'NONE', #131, #324, #289, .T. ) ;
#110 = EDGE_LOOP ( 'NONE', ( #270, #8, #196, #261 ) ) ;
#111 =( NAMED_UNIT ( * ) SI_UNIT ( $, .STERADIAN. ) SOLID_ANGLE_UNIT ( ) );
#112 = AXIS2_PLACEMENT_3D ( 'NONE', #36, #94, #44 ) ;
#113 = COLOUR_RGB ( '',0.5019607843137254832, 0.5019607843137254832, 0.5019607843137254832 ) ;
#114 = CIRCLE ( 'NONE', #145, 1.649999999999989919 ) ;
#115 = UNCERTAINTY_MEASURE_WITH_UNIT (LENGTH_MEASURE( 1.000000000000000082E-05 ), #305, 'distance_accuracy_value', 'NONE');
#116 = AXIS2_PLACEMENT_3D ( 'NONE', #138, #27, #211 ) ;
#117 =( NAMED_UNIT ( * ) SI_UNIT ( $, .STERADIAN. ) SOLID_ANGLE_UNIT ( ) );
#118 = EDGE_LOOP ( 'NONE', ( #47, #147, #35, #205 ) ) ;
#119 = EDGE_LOOP ( 'NONE', ( #266, #61 ) ) ;
#120 = PRODUCT_DEFINITION_FORMATION_WITH_SPECIFIED_SOURCE ( 'ANY', '', #238, .NOT_KNOWN. ) ;
#121 = DIRECTION ( 'NONE',  ( -0.0000000000000000000, -1.000000000000000000, -0.0000000000000000000 ) ) ;
#122 = UNCERTAINTY_MEASURE_WITH_UNIT (LENGTH_MEASURE( 1.000000000000000082E-05 ), #88, 'distance_accuracy_value', 'NONE');
#123 = DIRECTION ( 'NONE',  ( 0.0000000000000000000, 0.0000000000000000000, -1.000000000000000000 ) ) ;
#124 = CIRCLE ( 'NONE', #152, 4.000000000000000000 ) ;
#125 = CIRCLE ( 'NONE', #146, 1.649999999999996581 ) ;
#126 = SURFACE_STYLE_USAGE ( .BOTH. , #19 ) ;
#127 = PLANE ( 'NONE',  #83 ) ;
#128 = AXIS2_PLACEMENT_3D ( 'NONE', #10, #193, #14 ) ;
#129 = ADVANCED_FACE ( 'NONE', ( #107 ), #265, .F. ) ;
#130 = PRESENTATION_STYLE_ASSIGNMENT (( #126 ) ) ;
#131 = VERTEX_POINT ( 'NONE', #96 ) ;
#132 = DIRECTION ( 'NONE',  ( 0.0000000000000000000, 0.0000000000000000000, 1.000000000000000000 ) ) ;
#133 = DIRECTION ( 'NONE',  ( -0.0000000000000000000, -1.000000000000000000, -0.0000000000000000000 ) ) ;
#134 = DIRECTION ( 'NONE',  ( -0.0000000000000000000, 1.000000000000000000, -0.0000000000000000000 ) ) ;
#135 = AXIS2_PLACEMENT_3D ( 'NONE', #202, #294, #271 ) ;
#136 = LINE ( 'NONE', #316, #72 ) ;
#137 = SURFACE_STYLE_USAGE ( .BOTH. , #282 ) ;
#138 = CARTESIAN_POINT ( 'NONE',  ( 0.0000000000000000000, 0.0000000000000000000, 0.0000000000000000000 ) ) ;
#139 = EDGE_CURVE ( 'NONE', #236, #78, #312, .T. ) ;
#140 = CARTESIAN_POINT ( 'NONE',  ( 0.0000000000000000000, 30.00000000000000000, 0.0000000000000000000 ) ) ;
#141 = PRESENTATION_LAYER_ASSIGNMENT (  '', '', ( #232 ) ) ;
#142 = FACE_OUTER_BOUND ( 'NONE', #143, .T. ) ;
#143 = EDGE_LOOP ( 'NONE', ( #168, #299, #222, #313 ) ) ;
#144 = APPLICATION_PROTOCOL_DEFINITION ( 'draft international standard', 'automotive_design', 1998, #7 ) ;
#145 = AXIS2_PLACEMENT_3D ( 'NONE', #15, #13, #151 ) ;
#146 = AXIS2_PLACEMENT_3D ( 'NONE', #171, #93, #318 ) ;
#147 = ORIENTED_EDGE ( 'NONE', *, *, #139, .T. ) ;
#148 = DIRECTION ( 'NONE',  ( -0.0000000000000000000, -1.000000000000000000, -0.0000000000000000000 ) ) ;
#149 = PRODUCT_DEFINITION_SHAPE ( 'NONE', 'NONE',  #84 ) ;
#150 = ORIENTED_EDGE ( 'NONE', *, *, #109, .T. ) ;
#151 = DIRECTION ( 'NONE',  ( 0.0000000000000000000, 0.0000000000000000000, 1.000000000000000000 ) ) ;
#152 = AXIS2_PLACEMENT_3D ( 'NONE', #140, #133, #302 ) ;
#153 = CARTESIAN_POINT ( 'NONE',  ( 0.0000000000000000000, 2.000000000000000000, 0.0000000000000000000 ) ) ;
#154 = CONICAL_SURFACE ( 'NONE', #217, 1.649999999999996581, 1.029744258676652091 ) ;
#155 = ORIENTED_EDGE ( 'NONE', *, *, #9, .F. ) ;
#156 = AXIS2_PLACEMENT_3D ( 'NONE', #184, #51, #300 ) ;
#157 = DIRECTION ( 'NONE',  ( -0.0000000000000000000, -1.000000000000000000, -0.0000000000000000000 ) ) ;
#158 = AXIS2_PLACEMENT_3D ( 'NONE', #226, #295, #180 ) ;
#159 =( NAMED_UNIT ( * ) SI_UNIT ( $, .STERADIAN. ) SOLID_ANGLE_UNIT ( ) );
#160 = ORIENTED_EDGE ( 'NONE', *, *, #320, .T. ) ;
#161 = CARTESIAN_POINT ( 'NONE',  ( 0.0000000000000000000, 30.00000000000000000, 1.649999999999989919 ) ) ;
#162 = FACE_OUTER_BOUND ( 'NONE', #241, .T. ) ;
#163 = FACE_OUTER_BOUND ( 'NONE', #73, .T. ) ;
#164 = FILL_AREA_STYLE ('',( #283 ) ) ;
#165 = PRODUCT_CONTEXT ( 'NONE', #257, 'mechanical' ) ;
#166 = AXIS2_PLACEMENT_3D ( 'NONE', #63, #148, #34 ) ;
#167 = EDGE_LOOP ( 'NONE', ( #86, #278, #6, #229 ) ) ;
#168 = ORIENTED_EDGE ( 'NONE', *, *, #1, .T. ) ;
#169 = MECHANICAL_DESIGN_GEOMETRIC_PRESENTATION_REPRESENTATION (  '', ( #214 ), #68 ) ;
#170 = VECTOR ( 'NONE', #218, 1000.000000000000000 ) ;
#171 = CARTESIAN_POINT ( 'NONE',  ( 0.0000000000000000000, 13.99999999999999822, 0.0000000000000000000 ) ) ;
#172 = UNCERTAINTY_MEASURE_WITH_UNIT (LENGTH_MEASURE( 1.000000000000000082E-05 ), #227, 'distance_accuracy_value', 'NONE');
#173 = LINE ( 'NONE', #176, #319 ) ;
#174 = ORIENTED_EDGE ( 'NONE', *, *, #71, .F. ) ;
#175 = FILL_AREA_STYLE ('',( #62 ) ) ;
#176 = CARTESIAN_POINT ( 'NONE',  ( 0.0000000000000000000, 0.0000000000000000000, -4.000000000000000000 ) ) ;
#177 = VECTOR ( 'NONE', #248, 1000.000000000000000 ) ;
#178 = PRESENTATION_LAYER_ASSIGNMENT (  '', '', ( #92 ) ) ;
#179 = CARTESIAN_POINT ( 'NONE',  ( 0.0000000000000000000, 0.0000000000000000000, 0.0000000000000000000 ) ) ;
#180 = DIRECTION ( 'NONE',  ( 0.0000000000000000000, 0.0000000000000000000, 1.000000000000000000 ) ) ;
#181 = CARTESIAN_POINT ( 'NONE',  ( 0.0000000000000000000, 13.99999999999999822, 0.0000000000000000000 ) ) ;
#182 = ORIENTED_EDGE ( 'NONE', *, *, #46, .T. ) ;
#183 = DIRECTION ( 'NONE',  ( 0.0000000000000000000, 0.0000000000000000000, 1.000000000000000000 ) ) ;
#184 = CARTESIAN_POINT ( 'NONE',  ( 0.0000000000000000000, 13.99999999999999822, 0.0000000000000000000 ) ) ;
#185 = AXIS2_PLACEMENT_3D ( 'NONE', #75, #4, #2 ) ;
#186 =( NAMED_UNIT ( * ) PLANE_ANGLE_UNIT ( ) SI_UNIT ( $, .RADIAN. ) );
#187 = CIRCLE ( 'NONE', #128, 4.000000000000000000 ) ;
#188 = SURFACE_STYLE_USAGE ( .BOTH. , #277 ) ;
#189 = VECTOR ( 'NONE', #247, 1000.000000000000000 ) ;
#190 = ORIENTED_EDGE ( 'NONE', *, *, #55, .F. ) ;
#191 = PRESENTATION_STYLE_ASSIGNMENT (( #137 ) ) ;
#192 = EDGE_LOOP ( 'NONE', ( #31, #91, #90 ) ) ;
#193 = DIRECTION ( 'NONE',  ( -0.0000000000000000000, -1.000000000000000000, -0.0000000000000000000 ) ) ;
#194 = MECHANICAL_DESIGN_GEOMETRIC_PRESENTATION_REPRESENTATION (  '', ( #92 ), #106 ) ;
#195 = DIRECTION ( 'NONE',  ( -0.0000000000000000000, 1.000000000000000000, -0.0000000000000000000 ) ) ;
#196 = ORIENTED_EDGE ( 'NONE', *, *, #50, .T. ) ;
#197 = PLANE ( 'NONE',  #112 ) ;
#198 = TOROIDAL_SURFACE ( 'NONE', #306, 2.000000000000000000, 2.000000000000000000 ) ;
#199 = DIRECTION ( 'NONE',  ( 0.0000000000000000000, 0.0000000000000000000, -1.000000000000000000 ) ) ;
#200 = DIRECTION ( 'NONE',  ( 0.0000000000000000000, -0.0000000000000000000, 1.000000000000000000 ) ) ;
#201 = EDGE_CURVE ( 'NONE', #324, #3, #5, .T. ) ;
#202 = CARTESIAN_POINT ( 'NONE',  ( 0.0000000000000000000, 30.00000000000000000, 0.0000000000000000000 ) ) ;
#203 = SURFACE_STYLE_FILL_AREA ( #164 ) ;
#204 = DIRECTION ( 'NONE',  ( -0.0000000000000000000, -1.000000000000000000, -0.0000000000000000000 ) ) ;
#205 = ORIENTED_EDGE ( 'NONE', *, *, #46, .F. ) ;
#206 = CARTESIAN_POINT ( 'NONE',  ( 0.0000000000000000000, 2.000000000000000000, -2.000000000000000000 ) ) ;
#207 = AXIS2_PLACEMENT_3D ( 'NONE', #181, #41, #132 ) ;
#208 = ADVANCED_FACE ( 'NONE', ( #249, #215 ), #127, .T. ) ;
#209 = FACE_OUTER_BOUND ( 'NONE', #192, .T. ) ;
#210 = VERTEX_POINT ( 'NONE', #326 ) ;
#211 = DIRECTION ( 'NONE',  ( 0.0000000000000000000, 0.0000000000000000000, -1.000000000000000000 ) ) ;
#212 = CARTESIAN_POINT ( 'NONE',  ( 0.0000000000000000000, 0.0000000000000000000, -1.999999999999986233 ) ) ;
#213 = DIRECTION ( 'NONE',  ( -0.0000000000000000000, -1.000000000000000000, -0.0000000000000000000 ) ) ;
#214 = STYLED_ITEM ( 'NONE', ( #191 ), #301 ) ;
#215 = FACE_OUTER_BOUND ( 'NONE', #119, .T. ) ;
#216 = ORIENTED_EDGE ( 'NONE', *, *, #1, .F. ) ;
#217 = AXIS2_PLACEMENT_3D ( 'NONE', #103, #231, #304 ) ;
#218 = DIRECTION ( 'NONE',  ( 1.049727191138617217E-16, 0.5150380749100562650, -0.8571673007021111124 ) ) ;
#219 = DIRECTION ( 'NONE',  ( -0.0000000000000000000, 1.000000000000000000, -0.0000000000000000000 ) ) ;
#220 = EDGE_LOOP ( 'NONE', ( #155, #56, #250, #291 ) ) ;
#221 = DIRECTION ( 'NONE',  ( -0.0000000000000000000, -1.000000000000000000, -0.0000000000000000000 ) ) ;
#222 = ORIENTED_EDGE ( 'NONE', *, *, #26, .F. ) ;
#223 = DIRECTION ( 'NONE',  ( -1.000000000000000000, 0.0000000000000000000, 0.0000000000000000000 ) ) ;
#224 = CARTESIAN_POINT ( 'NONE',  ( 4.898587196589412829E-16, 2.000000000000013323, 4.000000000000000000 ) ) ;
#225 = AXIS2_PLACEMENT_3D ( 'NONE', #234, #254, #79 ) ;
#226 = CARTESIAN_POINT ( 'NONE',  ( 0.0000000000000000000, 30.00000000000000000, 0.0000000000000000000 ) ) ;
#227 =( LENGTH_UNIT ( ) NAMED_UNIT ( * ) SI_UNIT ( .MILLI., .METRE. ) );
#228 = CARTESIAN_POINT ( 'NONE',  ( 0.0000000000000000000, 13.99999999999999822, 1.649999999999996581 ) ) ;
#229 = ORIENTED_EDGE ( 'NONE', *, *, #139, .F. ) ;
#230 = ORIENTED_EDGE ( 'NONE', *, *, #80, .F. ) ;
#231 = DIRECTION ( 'NONE',  ( -0.0000000000000000000, 1.000000000000000000, -0.0000000000000000000 ) ) ;
#232 = STYLED_ITEM ( 'NONE', ( #130 ), #129 ) ;
#233 =( NAMED_UNIT ( * ) PLANE_ANGLE_UNIT ( ) SI_UNIT ( $, .RADIAN. ) );
#234 = CARTESIAN_POINT ( 'NONE',  ( 0.0000000000000000000, 30.00000000000000000, 0.0000000000000000000 ) ) ;
#235 = SURFACE_STYLE_FILL_AREA ( #175 ) ;
#236 = VERTEX_POINT ( 'NONE', #224 ) ;
#237 = STYLED_ITEM ( 'NONE', ( #285 ), #57 ) ;
#238 = PRODUCT ( '2229~6', '2229~6', '', ( #165 ) ) ;
#239 =( GEOMETRIC_REPRESENTATION_CONTEXT ( 3 ) GLOBAL_UNCERTAINTY_ASSIGNED_CONTEXT ( ( #40 ) ) GLOBAL_UNIT_ASSIGNED_CONTEXT ( ( #74, #102, #111 ) ) REPRESENTATION_CONTEXT ( 'NONE', 'WORKASPACE' ) );
#240 = SURFACE_STYLE_USAGE ( .BOTH. , #65 ) ;
#241 = EDGE_LOOP ( 'NONE', ( #174, #150, #85 ) ) ;
#242 = PRODUCT_RELATED_PRODUCT_CATEGORY ( 'part', '', ( #238 ) ) ;
#243 = CYLINDRICAL_SURFACE ( 'NONE', #273, 1.649999999999993250 ) ;
#244 = CIRCLE ( 'NONE', #307, 1.999999999999986233 ) ;
#245 = CARTESIAN_POINT ( 'NONE',  ( 4.898587196589412829E-16, 0.0000000000000000000, 4.000000000000000000 ) ) ;
#246 = EDGE_CURVE ( 'NONE', #21, #298, #60, .T. ) ;
#247 = DIRECTION ( 'NONE',  ( -0.0000000000000000000, -1.000000000000000000, -0.0000000000000000000 ) ) ;
#248 = DIRECTION ( 'NONE',  ( 0.0000000000000000000, 0.5150380749100562650, 0.8571673007021111124 ) ) ;
#249 = FACE_BOUND ( 'NONE', #284, .T. ) ;
#250 = ORIENTED_EDGE ( 'NONE', *, *, #246, .T. ) ;
#251 = FILL_AREA_STYLE_COLOUR ( '', #263 ) ;
#252 = CARTESIAN_POINT ( 'NONE',  ( 0.0000000000000000000, 13.99999999999999822, 1.649999999999996581 ) ) ;
#253 =( GEOMETRIC_REPRESENTATION_CONTEXT ( 3 ) GLOBAL_UNCERTAINTY_ASSIGNED_CONTEXT ( ( #108 ) ) GLOBAL_UNIT_ASSIGNED_CONTEXT ( ( #54, #186, #81 ) ) REPRESENTATION_CONTEXT ( 'NONE', 'WORKASPACE' ) );
#254 = DIRECTION ( 'NONE',  ( -0.0000000000000000000, -1.000000000000000000, -0.0000000000000000000 ) ) ;
#255 = FACE_OUTER_BOUND ( 'NONE', #110, .T. ) ;
#256 = CIRCLE ( 'NONE', #166, 1.999999999999986233 ) ;
#257 = APPLICATION_CONTEXT ( 'automotive_design' ) ;
#258 = FILL_AREA_STYLE_COLOUR ( '', #11 ) ;
#259 = FACE_OUTER_BOUND ( 'NONE', #101, .T. ) ;
#260 = LINE ( 'NONE', #38, #170 ) ;
#261 = ORIENTED_EDGE ( 'NONE', *, *, #55, .T. ) ;
#262 = DIRECTION ( 'NONE',  ( 0.0000000000000000000, 0.0000000000000000000, 1.000000000000000000 ) ) ;
#263 = COLOUR_RGB ( '',0.8666666666666666963, 0.8666666666666666963, 1.000000000000000000 ) ;
#264 = EDGE_CURVE ( 'NONE', #66, #236, #323, .T. ) ;
#265 = CYLINDRICAL_SURFACE ( 'NONE', #135, 1.649999999999993250 ) ;
#266 = ORIENTED_EDGE ( 'NONE', *, *, #320, .F. ) ;
#267 = CARTESIAN_POINT ( 'NONE',  ( 0.0000000000000000000, 2.000000000000013323, -4.000000000000000000 ) ) ;
#268 =( NAMED_UNIT ( * ) PLANE_ANGLE_UNIT ( ) SI_UNIT ( $, .RADIAN. ) );
#269 = CLOSED_SHELL ( 'NONE', ( #293, #129, #25, #325, #208, #272, #276, #104, #301, #281 ) ) ;
#270 = ORIENTED_EDGE ( 'NONE', *, *, #33, .F. ) ;
#271 = DIRECTION ( 'NONE',  ( 0.0000000000000000000, 0.0000000000000000000, 1.000000000000000000 ) ) ;
#272 = ADVANCED_FACE ( 'NONE', ( #322 ), #64, .T. ) ;
#273 = AXIS2_PLACEMENT_3D ( 'NONE', #279, #134, #183 ) ;
#274 = CIRCLE ( 'NONE', #225, 4.000000000000000000 ) ;
#275 = EDGE_CURVE ( 'NONE', #66, #288, #124, .T. ) ;
#276 = ADVANCED_FACE ( 'NONE', ( #87 ), #198, .T. ) ;
#277 = SURFACE_SIDE_STYLE ('',( #203 ) ) ;
#278 = ORIENTED_EDGE ( 'NONE', *, *, #275, .T. ) ;
#279 = CARTESIAN_POINT ( 'NONE',  ( 0.0000000000000000000, 30.00000000000000000, 0.0000000000000000000 ) ) ;
#280 = CARTESIAN_POINT ( 'NONE',  ( 0.0000000000000000000, 2.000000000000000000, 0.0000000000000000000 ) ) ;
#281 = ADVANCED_FACE ( 'NONE', ( #162 ), #310, .F. ) ;
#282 = SURFACE_SIDE_STYLE ('',( #70 ) ) ;
#283 = FILL_AREA_STYLE_COLOUR ( '', #113 ) ;
#284 = EDGE_LOOP ( 'NONE', ( #190, #100 ) ) ;
#285 = PRESENTATION_STYLE_ASSIGNMENT (( #188 ) ) ;
#286 = VERTEX_POINT ( 'NONE', #212 ) ;
#287 = AXIS2_PLACEMENT_3D ( 'NONE', #153, #221, #123 ) ;
#288 = VERTEX_POINT ( 'NONE', #29 ) ;
#289 = LINE ( 'NONE', #228, #177 ) ;
#290 = CARTESIAN_POINT ( 'NONE',  ( 2.020667218593124620E-16, 30.00000000000000000, -1.649999999999993250 ) ) ;
#291 = ORIENTED_EDGE ( 'NONE', *, *, #50, .F. ) ;
#292 = CARTESIAN_POINT ( 'NONE',  ( 0.0000000000000000000, 0.0000000000000000000, 0.0000000000000000000 ) ) ;
#293 = ADVANCED_FACE ( 'NONE', ( #209 ), #154, .F. ) ;
#294 = DIRECTION ( 'NONE',  ( -0.0000000000000000000, 1.000000000000000000, -0.0000000000000000000 ) ) ;
#295 = DIRECTION ( 'NONE',  ( -0.0000000000000000000, 1.000000000000000000, -0.0000000000000000000 ) ) ;
#296 = FILL_AREA_STYLE ('',( #251 ) ) ;
#297 =( NAMED_UNIT ( * ) PLANE_ANGLE_UNIT ( ) SI_UNIT ( $, .RADIAN. ) );
#298 = VERTEX_POINT ( 'NONE', #161 ) ;
#299 = ORIENTED_EDGE ( 'NONE', *, *, #303, .T. ) ;
#300 = DIRECTION ( 'NONE',  ( 0.0000000000000000000, 0.0000000000000000000, 1.000000000000000000 ) ) ;
#301 = ADVANCED_FACE ( 'NONE', ( #255 ), #243, .F. ) ;
#302 = DIRECTION ( 'NONE',  ( 0.0000000000000000000, 0.0000000000000000000, -1.000000000000000000 ) ) ;
#303 = EDGE_CURVE ( 'NONE', #236, #210, #82, .T. ) ;
#304 = DIRECTION ( 'NONE',  ( 0.0000000000000000000, 0.0000000000000000000, 1.000000000000000000 ) ) ;
#305 =( LENGTH_UNIT ( ) NAMED_UNIT ( * ) SI_UNIT ( .MILLI., .METRE. ) );
#306 = AXIS2_PLACEMENT_3D ( 'NONE', #280, #213, #24 ) ;
#307 = AXIS2_PLACEMENT_3D ( 'NONE', #292, #121, #199 ) ;
#308 = SURFACE_STYLE_FILL_AREA ( #296 ) ;
#309 = DIRECTION ( 'NONE',  ( 1.000000000000000000, 0.0000000000000000000, 0.0000000000000000000 ) ) ;
#310 = CONICAL_SURFACE ( 'NONE', #156, 1.649999999999996581, 1.029744258676652091 ) ;
#311 = CARTESIAN_POINT ( 'NONE',  ( 2.020667218593128811E-16, 13.99999999999999822, -1.649999999999996581 ) ) ;
#312 = CIRCLE ( 'NONE', #59, 4.000000000000000000 ) ;
#313 = ORIENTED_EDGE ( 'NONE', *, *, #95, .F. ) ;
#314 = CARTESIAN_POINT ( 'NONE',  ( 4.898587196589412829E-16, 30.00000000000000000, 4.000000000000000000 ) ) ;
#315 = DIRECTION ( 'NONE',  ( -0.0000000000000000000, -1.000000000000000000, -0.0000000000000000000 ) ) ;
#316 = CARTESIAN_POINT ( 'NONE',  ( 0.0000000000000000000, 30.00000000000000000, 1.649999999999993250 ) ) ;
#317 = CYLINDRICAL_SURFACE ( 'NONE', #116, 4.000000000000000000 ) ;
#318 = DIRECTION ( 'NONE',  ( 0.0000000000000000000, 0.0000000000000000000, 1.000000000000000000 ) ) ;
#319 = VECTOR ( 'NONE', #315, 1000.000000000000000 ) ;
#320 = EDGE_CURVE ( 'NONE', #288, #66, #274, .T. ) ;
#321 = CARTESIAN_POINT ( 'NONE',  ( 4.000000000000000000, 30.00000000000000000, 0.0000000000000000000 ) ) ;
#322 = FACE_OUTER_BOUND ( 'NONE', #167, .T. ) ;
#323 = LINE ( 'NONE', #245, #189 ) ;
#324 = VERTEX_POINT ( 'NONE', #252 ) ;
#325 = ADVANCED_FACE ( 'NONE', ( #259 ), #317, .T. ) ;
#326 = CARTESIAN_POINT ( 'NONE',  ( 3.673940397442050993E-16, 0.0000000000000000000, 1.999999999999986233 ) ) ;
ENDSEC;
END-ISO-10303-21;
