ISO-10303-21;
HEADER;
FILE_DESCRIPTION (( 'STEP AP214' ),
    '1' );
FILE_NAME ('25519~0.STEP',
    '2019-01-28T14:20:13',
    ( '' ),
    ( '' ),
    'SwSTEP 2.0',
    'SolidWorks 2018',
    '' );
FILE_SCHEMA (( 'AUTOMOTIVE_DESIGN' ));
ENDSEC;

DATA;
#1 = CONICAL_SURFACE ( 'NONE', #39, 1.249999999999997558, 1.029744258676652091 ) ;
#2 = FILL_AREA_STYLE ('',( #271 ) ) ;
#3 = UNCERTAINTY_MEASURE_WITH_UNIT (LENGTH_MEASURE( 1.000000000000000082E-05 ), #96, 'distance_accuracy_value', 'NONE');
#4 = STYLED_ITEM ( 'NONE', ( #104 ), #294 ) ;
#5 = LINE ( 'NONE', #147, #194 ) ;
#6 = ORIENTED_EDGE ( 'NONE', *, *, #174, .T. ) ;
#7 = AXIS2_PLACEMENT_3D ( 'NONE', #99, #15, #200 ) ;
#8 = CARTESIAN_POINT ( 'NONE',  ( 1.249999999999997558, 0.0000000000000000000, -8.000000000000000000 ) ) ;
#9 = DIRECTION ( 'NONE',  ( 0.0000000000000000000, 0.0000000000000000000, 1.000000000000000000 ) ) ;
#10 = FACE_OUTER_BOUND ( 'NONE', #266, .T. ) ;
#11 = ORIENTED_EDGE ( 'NONE', *, *, #30, .F. ) ;
#12 = CARTESIAN_POINT ( 'NONE',  ( 0.0000000000000000000, 0.0000000000000000000, 0.0000000000000000000 ) ) ;
#13 = CARTESIAN_POINT ( 'NONE',  ( 3.000000000000000444, 0.0000000000000000000, -9.000000000000001776 ) ) ;
#14 = MECHANICAL_DESIGN_GEOMETRIC_PRESENTATION_REPRESENTATION (  '', ( #4 ), #187 ) ;
#15 = DIRECTION ( 'NONE',  ( -0.0000000000000000000, -0.0000000000000000000, 1.000000000000000000 ) ) ;
#16 = PRESENTATION_STYLE_ASSIGNMENT (( #232 ) ) ;
#17 = DIRECTION ( 'NONE',  ( 1.000000000000000000, 0.0000000000000000000, 0.0000000000000000000 ) ) ;
#18 = LINE ( 'NONE', #40, #71 ) ;
#19 = EDGE_CURVE ( 'NONE', #323, #84, #134, .T. ) ;
#20 = CARTESIAN_POINT ( 'NONE',  ( 0.0000000000000000000, 0.0000000000000000000, -9.000000000000001776 ) ) ;
#21 = DIRECTION ( 'NONE',  ( -0.0000000000000000000, -0.0000000000000000000, 1.000000000000000000 ) ) ;
#22 = VECTOR ( 'NONE', #130, 1000.000000000000000 ) ;
#23 = EDGE_LOOP ( 'NONE', ( #312, #188, #146, #135 ) ) ;
#24 = CARTESIAN_POINT ( 'NONE',  ( 0.0000000000000000000, 0.0000000000000000000, -12.50000000000000000 ) ) ;
#25 = STYLED_ITEM ( 'NONE', ( #283 ), #153 ) ;
#26 = CYLINDRICAL_SURFACE ( 'NONE', #277, 1.249999999999997780 ) ;
#27 =( LENGTH_UNIT ( ) NAMED_UNIT ( * ) SI_UNIT ( .MILLI., .METRE. ) );
#28 = EDGE_LOOP ( 'NONE', ( #172, #106 ) ) ;
#29 = EDGE_LOOP ( 'NONE', ( #76, #254 ) ) ;
#30 = EDGE_CURVE ( 'NONE', #231, #37, #5, .T. ) ;
#31 = FACE_BOUND ( 'NONE', #234, .T. ) ;
#32 = EDGE_LOOP ( 'NONE', ( #41, #169, #144 ) ) ;
#33 = ADVANCED_FACE ( 'NONE', ( #10 ), #247, .T. ) ;
#34 = CARTESIAN_POINT ( 'NONE',  ( 3.000000000000000444, 0.0000000000000000000, -12.50000000000000000 ) ) ;
#35 = AXIS2_PLACEMENT_3D ( 'NONE', #129, #313, #175 ) ;
#36 = FACE_OUTER_BOUND ( 'NONE', #23, .T. ) ;
#37 = VERTEX_POINT ( 'NONE', #8 ) ;
#38 = CARTESIAN_POINT ( 'NONE',  ( 0.0000000000000000000, 0.0000000000000000000, -8.000000000000000000 ) ) ;
#39 = AXIS2_PLACEMENT_3D ( 'NONE', #38, #151, #127 ) ;
#40 = CARTESIAN_POINT ( 'NONE',  ( -1.249999999999997558, 1.530808498934188612E-16, -8.000000000000000000 ) ) ;
#41 = ORIENTED_EDGE ( 'NONE', *, *, #213, .F. ) ;
#42 = ORIENTED_EDGE ( 'NONE', *, *, #140, .T. ) ;
#43 = STYLED_ITEM ( 'NONE', ( #16 ), #51 ) ;
#44 = UNCERTAINTY_MEASURE_WITH_UNIT (LENGTH_MEASURE( 1.000000000000000082E-05 ), #27, 'distance_accuracy_value', 'NONE');
#45 = DIRECTION ( 'NONE',  ( 1.000000000000000000, 0.0000000000000000000, -0.0000000000000000000 ) ) ;
#46 = CARTESIAN_POINT ( 'NONE',  ( 0.0000000000000000000, 0.0000000000000000000, -12.50000000000000000 ) ) ;
#47 = DIRECTION ( 'NONE',  ( -0.0000000000000000000, -0.0000000000000000000, -1.000000000000000000 ) ) ;
#48 = ORIENTED_EDGE ( 'NONE', *, *, #185, .F. ) ;
#49 = DIRECTION ( 'NONE',  ( 1.000000000000000000, 0.0000000000000000000, -0.0000000000000000000 ) ) ;
#50 = PRESENTATION_LAYER_ASSIGNMENT (  '', '', ( #43 ) ) ;
#51 = ADVANCED_BREP_SHAPE_REPRESENTATION ( '25519~0', ( #246, #311 ), #121 ) ;
#52 = EDGE_CURVE ( 'NONE', #259, #229, #198, .T. ) ;
#53 = CONICAL_SURFACE ( 'NONE', #315, 3.000000000000000444, 0.4048917862850834881 ) ;
#54 = ORIENTED_EDGE ( 'NONE', *, *, #52, .T. ) ;
#55 = PRODUCT_CONTEXT ( 'NONE', #116, 'mechanical' ) ;
#56 = AXIS2_PLACEMENT_3D ( 'NONE', #252, #74, #203 ) ;
#57 = CYLINDRICAL_SURFACE ( 'NONE', #115, 1.249999999999997780 ) ;
#58 =( GEOMETRIC_REPRESENTATION_CONTEXT ( 3 ) GLOBAL_UNCERTAINTY_ASSIGNED_CONTEXT ( ( #3 ) ) GLOBAL_UNIT_ASSIGNED_CONTEXT ( ( #96, #66, #316 ) ) REPRESENTATION_CONTEXT ( 'NONE', 'WORKASPACE' ) );
#59 = CARTESIAN_POINT ( 'NONE',  ( -3.000000000000000444, 3.673940397442059868E-16, -9.000000000000001776 ) ) ;
#60 = CARTESIAN_POINT ( 'NONE',  ( 0.0000000000000000000, 0.0000000000000000000, -12.50000000000000000 ) ) ;
#61 = FACE_OUTER_BOUND ( 'NONE', #86, .T. ) ;
#62 = PRODUCT_DEFINITION_FORMATION_WITH_SPECIFIED_SOURCE ( 'ANY', '', #82, .NOT_KNOWN. ) ;
#63 = DIRECTION ( 'NONE',  ( -0.0000000000000000000, -0.0000000000000000000, 1.000000000000000000 ) ) ;
#64 = EDGE_CURVE ( 'NONE', #323, #257, #240, .T. ) ;
#65 = CIRCLE ( 'NONE', #98, 1.500000000000000666 ) ;
#66 =( NAMED_UNIT ( * ) PLANE_ANGLE_UNIT ( ) SI_UNIT ( $, .RADIAN. ) );
#67 = ORIENTED_EDGE ( 'NONE', *, *, #174, .F. ) ;
#68 = PRODUCT_RELATED_PRODUCT_CATEGORY ( 'part', '', ( #82 ) ) ;
#69 = DIRECTION ( 'NONE',  ( 1.000000000000000000, 0.0000000000000000000, 0.0000000000000000000 ) ) ;
#70 = EDGE_CURVE ( 'NONE', #105, #301, #291, .T. ) ;
#71 = VECTOR ( 'NONE', #226, 1000.000000000000000 ) ;
#72 = CARTESIAN_POINT ( 'NONE',  ( -1.249999999999998002, 1.530808498934189105E-16, 4.898425415289417328E-17 ) ) ;
#73 = AXIS2_PLACEMENT_3D ( 'NONE', #273, #139, #133 ) ;
#74 = DIRECTION ( 'NONE',  ( 0.0000000000000000000, 0.0000000000000000000, 1.000000000000000000 ) ) ;
#75 = CIRCLE ( 'NONE', #235, 3.000000000000000444 ) ;
#76 = ORIENTED_EDGE ( 'NONE', *, *, #191, .T. ) ;
#77 = PRESENTATION_LAYER_ASSIGNMENT (  '', '', ( #303 ) ) ;
#78 = CARTESIAN_POINT ( 'NONE',  ( -2.143324599071503464E-15, 0.0000000000000000000, -8.751075773784451783 ) ) ;
#79 = CARTESIAN_POINT ( 'NONE',  ( 1.500000000000000666, 0.0000000000000000000, -12.50000000000000000 ) ) ;
#80 = AXIS2_PLACEMENT_3D ( 'NONE', #245, #199, #222 ) ;
#81 = LINE ( 'NONE', #131, #22 ) ;
#82 = PRODUCT ( '25519~0', '25519~0', '', ( #55 ) ) ;
#83 = APPLICATION_CONTEXT ( 'automotive_design' ) ;
#84 = VERTEX_POINT ( 'NONE', #88 ) ;
#85 = EDGE_CURVE ( 'NONE', #229, #259, #206, .T. ) ;
#86 = EDGE_LOOP ( 'NONE', ( #275, #42, #236, #48 ) ) ;
#87 = EDGE_CURVE ( 'NONE', #84, #228, #117, .T. ) ;
#88 = CARTESIAN_POINT ( 'NONE',  ( -3.000000000000000444, 3.673940397442060361E-16, -9.000000000000001776 ) ) ;
#89 = MECHANICAL_DESIGN_GEOMETRIC_PRESENTATION_REPRESENTATION (  '', ( #25 ), #58 ) ;
#90 = DIRECTION ( 'NONE',  ( 0.8571673007021111124, 0.0000000000000000000, 0.5150380749100562650 ) ) ;
#91 = VECTOR ( 'NONE', #264, 1000.000000000000000 ) ;
#92 = ORIENTED_EDGE ( 'NONE', *, *, #213, .T. ) ;
#93 =( GEOMETRIC_REPRESENTATION_CONTEXT ( 3 ) GLOBAL_UNCERTAINTY_ASSIGNED_CONTEXT ( ( #262 ) ) GLOBAL_UNIT_ASSIGNED_CONTEXT ( ( #319, #162, #251 ) ) REPRESENTATION_CONTEXT ( 'NONE', 'WORKASPACE' ) );
#94 = ADVANCED_FACE ( 'NONE', ( #36 ), #300, .T. ) ;
#95 = DIRECTION ( 'NONE',  ( -0.0000000000000000000, -0.0000000000000000000, 1.000000000000000000 ) ) ;
#96 =( LENGTH_UNIT ( ) NAMED_UNIT ( * ) SI_UNIT ( .MILLI., .METRE. ) );
#97 = SHAPE_DEFINITION_REPRESENTATION ( #285, #51 ) ;
#98 = AXIS2_PLACEMENT_3D ( 'NONE', #46, #47, #111 ) ;
#99 = CARTESIAN_POINT ( 'NONE',  ( 0.0000000000000000000, 0.0000000000000000000, -8.000000000000000000 ) ) ;
#100 = CLOSED_SHELL ( 'NONE', ( #33, #197, #153, #94, #237, #249, #261, #294, #109, #124 ) ) ;
#101 = CARTESIAN_POINT ( 'NONE',  ( 0.0000000000000000000, 0.0000000000000000000, -9.000000000000001776 ) ) ;
#102 = DIRECTION ( 'NONE',  ( -0.0000000000000000000, -0.0000000000000000000, 1.000000000000000000 ) ) ;
#103 = FILL_AREA_STYLE ('',( #157 ) ) ;
#104 = PRESENTATION_STYLE_ASSIGNMENT (( #227 ) ) ;
#105 = VERTEX_POINT ( 'NONE', #269 ) ;
#106 = ORIENTED_EDGE ( 'NONE', *, *, #64, .T. ) ;
#107 = DIRECTION ( 'NONE',  ( 1.000000000000000000, 0.0000000000000000000, 0.0000000000000000000 ) ) ;
#108 = CARTESIAN_POINT ( 'NONE',  ( 0.0000000000000000000, 0.0000000000000000000, 0.0000000000000000000 ) ) ;
#109 = ADVANCED_FACE ( 'NONE', ( #216 ), #1, .F. ) ;
#110 = EDGE_CURVE ( 'NONE', #37, #284, #155, .T. ) ;
#111 = DIRECTION ( 'NONE',  ( 1.000000000000000000, 0.0000000000000000000, 0.0000000000000000000 ) ) ;
#112 = ORIENTED_EDGE ( 'NONE', *, *, #215, .F. ) ;
#113 = AXIS2_PLACEMENT_3D ( 'NONE', #255, #204, #45 ) ;
#114 =( NAMED_UNIT ( * ) SI_UNIT ( $, .STERADIAN. ) SOLID_ANGLE_UNIT ( ) );
#115 = AXIS2_PLACEMENT_3D ( 'NONE', #12, #95, #201 ) ;
#116 = APPLICATION_CONTEXT ( 'automotive_design' ) ;
#117 = LINE ( 'NONE', #218, #91 ) ;
#118 =( NAMED_UNIT ( * ) SI_UNIT ( $, .STERADIAN. ) SOLID_ANGLE_UNIT ( ) );
#119 = EDGE_CURVE ( 'NONE', #284, #229, #81, .T. ) ;
#120 = ORIENTED_EDGE ( 'NONE', *, *, #123, .F. ) ;
#121 =( GEOMETRIC_REPRESENTATION_CONTEXT ( 3 ) GLOBAL_UNCERTAINTY_ASSIGNED_CONTEXT ( ( #179 ) ) GLOBAL_UNIT_ASSIGNED_CONTEXT ( ( #186, #211, #118 ) ) REPRESENTATION_CONTEXT ( 'NONE', 'WORKASPACE' ) );
#122 = ORIENTED_EDGE ( 'NONE', *, *, #145, .F. ) ;
#123 = EDGE_CURVE ( 'NONE', #257, #105, #202, .T. ) ;
#124 = ADVANCED_FACE ( 'NONE', ( #322 ), #53, .T. ) ;
#125 = FACE_OUTER_BOUND ( 'NONE', #29, .T. ) ;
#126 = LINE ( 'NONE', #324, #290 ) ;
#127 = DIRECTION ( 'NONE',  ( 1.000000000000000000, 0.0000000000000000000, 0.0000000000000000000 ) ) ;
#128 = AXIS2_PLACEMENT_3D ( 'NONE', #238, #286, #150 ) ;
#129 = CARTESIAN_POINT ( 'NONE',  ( 0.0000000000000000000, 0.0000000000000000000, 0.0000000000000000000 ) ) ;
#130 = DIRECTION ( 'NONE',  ( -0.0000000000000000000, -0.0000000000000000000, 1.000000000000000000 ) ) ;
#131 = CARTESIAN_POINT ( 'NONE',  ( -1.249999999999997780, 1.530808498934188859E-16, 0.0000000000000000000 ) ) ;
#132 = AXIS2_PLACEMENT_3D ( 'NONE', #195, #267, #156 ) ;
#133 = DIRECTION ( 'NONE',  ( 1.000000000000000000, 0.0000000000000000000, 0.0000000000000000000 ) ) ;
#134 = LINE ( 'NONE', #59, #253 ) ;
#135 = ORIENTED_EDGE ( 'NONE', *, *, #70, .F. ) ;
#136 = UNCERTAINTY_MEASURE_WITH_UNIT (LENGTH_MEASURE( 1.000000000000000082E-05 ), #138, 'distance_accuracy_value', 'NONE');
#137 = CARTESIAN_POINT ( 'NONE',  ( -3.000000000000000444, 3.673940397442060361E-16, 0.0000000000000000000 ) ) ;
#138 =( LENGTH_UNIT ( ) NAMED_UNIT ( * ) SI_UNIT ( .MILLI., .METRE. ) );
#139 = DIRECTION ( 'NONE',  ( -0.0000000000000000000, -0.0000000000000000000, 1.000000000000000000 ) ) ;
#140 = EDGE_CURVE ( 'NONE', #84, #105, #224, .T. ) ;
#141 = COLOUR_RGB ( '',0.5019607843137254832, 0.5019607843137254832, 0.5019607843137254832 ) ;
#142 = FACE_OUTER_BOUND ( 'NONE', #193, .T. ) ;
#143 = APPLICATION_PROTOCOL_DEFINITION ( 'draft international standard', 'automotive_design', 1998, #116 ) ;
#144 = ORIENTED_EDGE ( 'NONE', *, *, #110, .T. ) ;
#145 = EDGE_CURVE ( 'NONE', #105, #84, #75, .T. ) ;
#146 = ORIENTED_EDGE ( 'NONE', *, *, #191, .F. ) ;
#147 = CARTESIAN_POINT ( 'NONE',  ( 1.249999999999997558, 0.0000000000000000000, -8.000000000000000000 ) ) ;
#148 = CARTESIAN_POINT ( 'NONE',  ( 0.0000000000000000000, 0.0000000000000000000, 4.898425415289417328E-17 ) ) ;
#149 = PRESENTATION_LAYER_ASSIGNMENT (  '', '', ( #25 ) ) ;
#150 = DIRECTION ( 'NONE',  ( 1.000000000000000000, 0.0000000000000000000, 0.0000000000000000000 ) ) ;
#151 = DIRECTION ( 'NONE',  ( -0.0000000000000000000, -0.0000000000000000000, 1.000000000000000000 ) ) ;
#152 = ORIENTED_EDGE ( 'NONE', *, *, #119, .F. ) ;
#153 = ADVANCED_FACE ( 'NONE', ( #168 ), #57, .F. ) ;
#154 = SURFACE_STYLE_USAGE ( .BOTH. , #295 ) ;
#155 = CIRCLE ( 'NONE', #7, 1.249999999999997558 ) ;
#156 = DIRECTION ( 'NONE',  ( 1.000000000000000000, 0.0000000000000000000, 0.0000000000000000000 ) ) ;
#157 = FILL_AREA_STYLE_COLOUR ( '', #141 ) ;
#158 = PLANE ( 'NONE',  #260 ) ;
#159 = MECHANICAL_DESIGN_GEOMETRIC_PRESENTATION_REPRESENTATION (  '', ( #303 ), #93 ) ;
#160 =( NAMED_UNIT ( * ) PLANE_ANGLE_UNIT ( ) SI_UNIT ( $, .RADIAN. ) );
#161 = ORIENTED_EDGE ( 'NONE', *, *, #244, .F. ) ;
#162 =( NAMED_UNIT ( * ) PLANE_ANGLE_UNIT ( ) SI_UNIT ( $, .RADIAN. ) );
#163 = AXIS2_PLACEMENT_3D ( 'NONE', #148, #63, #170 ) ;
#164 = SURFACE_SIDE_STYLE ('',( #176 ) ) ;
#165 = SURFACE_STYLE_FILL_AREA ( #2 ) ;
#166 = PRESENTATION_LAYER_ASSIGNMENT (  '', '', ( #4 ) ) ;
#167 =( NAMED_UNIT ( * ) PLANE_ANGLE_UNIT ( ) SI_UNIT ( $, .RADIAN. ) );
#168 = FACE_OUTER_BOUND ( 'NONE', #314, .T. ) ;
#169 = ORIENTED_EDGE ( 'NONE', *, *, #30, .T. ) ;
#170 = DIRECTION ( 'NONE',  ( 1.000000000000000000, 0.0000000000000000000, 0.0000000000000000000 ) ) ;
#171 = PRODUCT_DEFINITION_CONTEXT ( 'detailed design', #83, 'design' ) ;
#172 = ORIENTED_EDGE ( 'NONE', *, *, #215, .T. ) ;
#173 = DIRECTION ( 'NONE',  ( 1.000000000000000000, 0.0000000000000000000, 0.0000000000000000000 ) ) ;
#174 = EDGE_CURVE ( 'NONE', #284, #37, #258, .T. ) ;
#175 = DIRECTION ( 'NONE',  ( 1.000000000000000000, 0.0000000000000000000, 0.0000000000000000000 ) ) ;
#176 = SURFACE_STYLE_FILL_AREA ( #103 ) ;
#177 = CARTESIAN_POINT ( 'NONE',  ( 0.0000000000000000000, 0.0000000000000000000, -9.000000000000001776 ) ) ;
#178 = ORIENTED_EDGE ( 'NONE', *, *, #19, .F. ) ;
#179 = UNCERTAINTY_MEASURE_WITH_UNIT (LENGTH_MEASURE( 1.000000000000000082E-05 ), #186, 'distance_accuracy_value', 'NONE');
#180 = SURFACE_SIDE_STYLE ('',( #181 ) ) ;
#181 = SURFACE_STYLE_FILL_AREA ( #298 ) ;
#182 = VECTOR ( 'NONE', #9, 1000.000000000000000 ) ;
#183 = ORIENTED_EDGE ( 'NONE', *, *, #64, .F. ) ;
#184 = DIRECTION ( 'NONE',  ( 0.0000000000000000000, 0.0000000000000000000, 1.000000000000000000 ) ) ;
#185 = EDGE_CURVE ( 'NONE', #228, #301, #189, .T. ) ;
#186 =( LENGTH_UNIT ( ) NAMED_UNIT ( * ) SI_UNIT ( .MILLI., .METRE. ) );
#187 =( GEOMETRIC_REPRESENTATION_CONTEXT ( 3 ) GLOBAL_UNCERTAINTY_ASSIGNED_CONTEXT ( ( #136 ) ) GLOBAL_UNIT_ASSIGNED_CONTEXT ( ( #138, #160, #320 ) ) REPRESENTATION_CONTEXT ( 'NONE', 'WORKASPACE' ) );
#188 = ORIENTED_EDGE ( 'NONE', *, *, #87, .T. ) ;
#189 = CIRCLE ( 'NONE', #35, 3.000000000000000444 ) ;
#190 = ORIENTED_EDGE ( 'NONE', *, *, #85, .F. ) ;
#191 = EDGE_CURVE ( 'NONE', #301, #228, #263, .T. ) ;
#192 = FACE_OUTER_BOUND ( 'NONE', #292, .T. ) ;
#193 = EDGE_LOOP ( 'NONE', ( #11, #92, #6 ) ) ;
#194 = VECTOR ( 'NONE', #90, 1000.000000000000000 ) ;
#195 = CARTESIAN_POINT ( 'NONE',  ( 0.0000000000000000000, 0.0000000000000000000, 4.898425415289417328E-17 ) ) ;
#196 = CARTESIAN_POINT ( 'NONE',  ( 0.0000000000000000000, 0.0000000000000000000, -12.50000000000000000 ) ) ;
#197 = ADVANCED_FACE ( 'NONE', ( #142 ), #279, .F. ) ;
#198 = CIRCLE ( 'NONE', #163, 1.249999999999998002 ) ;
#199 = DIRECTION ( 'NONE',  ( -0.0000000000000000000, -0.0000000000000000000, 1.000000000000000000 ) ) ;
#200 = DIRECTION ( 'NONE',  ( 1.000000000000000000, 0.0000000000000000000, 0.0000000000000000000 ) ) ;
#201 = DIRECTION ( 'NONE',  ( 1.000000000000000000, 0.0000000000000000000, 0.0000000000000000000 ) ) ;
#202 = LINE ( 'NONE', #13, #318 ) ;
#203 = DIRECTION ( 'NONE',  ( 1.000000000000000000, 0.0000000000000000000, 0.0000000000000000000 ) ) ;
#204 = DIRECTION ( 'NONE',  ( 0.0000000000000000000, 0.0000000000000000000, 1.000000000000000000 ) ) ;
#205 = CARTESIAN_POINT ( 'NONE',  ( 3.000000000000000444, 0.0000000000000000000, 0.0000000000000000000 ) ) ;
#206 = CIRCLE ( 'NONE', #132, 1.249999999999998002 ) ;
#207 = ORIENTED_EDGE ( 'NONE', *, *, #140, .F. ) ;
#208 = DIRECTION ( 'NONE',  ( 1.000000000000000000, 0.0000000000000000000, 0.0000000000000000000 ) ) ;
#209 = CARTESIAN_POINT ( 'NONE',  ( 0.0000000000000000000, 0.0000000000000000000, -12.50000000000000000 ) ) ;
#210 = DIRECTION ( 'NONE',  ( 0.0000000000000000000, 0.0000000000000000000, 1.000000000000000000 ) ) ;
#211 =( NAMED_UNIT ( * ) PLANE_ANGLE_UNIT ( ) SI_UNIT ( $, .RADIAN. ) );
#212 = DIRECTION ( 'NONE',  ( 1.000000000000000000, 0.0000000000000000000, 0.0000000000000000000 ) ) ;
#213 = EDGE_CURVE ( 'NONE', #231, #284, #18, .T. ) ;
#214 = ORIENTED_EDGE ( 'NONE', *, *, #110, .F. ) ;
#215 = EDGE_CURVE ( 'NONE', #257, #323, #65, .T. ) ;
#216 = FACE_OUTER_BOUND ( 'NONE', #32, .T. ) ;
#217 = PRODUCT_DEFINITION ( 'UNKNOWN', '', #62, #171 ) ;
#218 = CARTESIAN_POINT ( 'NONE',  ( -3.000000000000000444, 3.673940397442060361E-16, -12.50000000000000000 ) ) ;
#219 = EDGE_LOOP ( 'NONE', ( #178, #112, #309, #207 ) ) ;
#220 = FILL_AREA_STYLE_COLOUR ( '', #233 ) ;
#221 = AXIS2_PLACEMENT_3D ( 'NONE', #20, #102, #17 ) ;
#222 = DIRECTION ( 'NONE',  ( 1.000000000000000000, 0.0000000000000000000, 0.0000000000000000000 ) ) ;
#223 = DIRECTION ( 'NONE',  ( -0.0000000000000000000, -0.0000000000000000000, 1.000000000000000000 ) ) ;
#224 = CIRCLE ( 'NONE', #221, 3.000000000000000444 ) ;
#225 = DIRECTION ( 'NONE',  ( 1.000000000000000000, 0.0000000000000000000, 0.0000000000000000000 ) ) ;
#226 = DIRECTION ( 'NONE',  ( -0.8571673007021111124, 1.049727191138617217E-16, 0.5150380749100562650 ) ) ;
#227 = SURFACE_STYLE_USAGE ( .BOTH. , #180 ) ;
#228 = VERTEX_POINT ( 'NONE', #137 ) ;
#229 = VERTEX_POINT ( 'NONE', #72 ) ;
#230 = FILL_AREA_STYLE_COLOUR ( '', #317 ) ;
#231 = VERTEX_POINT ( 'NONE', #78 ) ;
#232 = SURFACE_STYLE_USAGE ( .BOTH. , #280 ) ;
#233 = COLOUR_RGB ( '',1.000000000000000000, 1.000000000000000000, 0.5019607843137254832 ) ;
#234 = EDGE_LOOP ( 'NONE', ( #305, #190 ) ) ;
#235 = AXIS2_PLACEMENT_3D ( 'NONE', #177, #223, #69 ) ;
#236 = ORIENTED_EDGE ( 'NONE', *, *, #70, .T. ) ;
#237 = ADVANCED_FACE ( 'NONE', ( #61 ), #256, .T. ) ;
#238 = CARTESIAN_POINT ( 'NONE',  ( 0.0000000000000000000, 0.0000000000000000000, -9.000000000000001776 ) ) ;
#239 = DIRECTION ( 'NONE',  ( 1.000000000000000000, 0.0000000000000000000, 0.0000000000000000000 ) ) ;
#240 = CIRCLE ( 'NONE', #278, 1.500000000000000666 ) ;
#241 = DIRECTION ( 'NONE',  ( -0.0000000000000000000, -0.0000000000000000000, -1.000000000000000000 ) ) ;
#242 = DIRECTION ( 'NONE',  ( -0.3939192985791677426, 4.824120081273482090E-17, 0.9191450300180578070 ) ) ;
#243 = ORIENTED_EDGE ( 'NONE', *, *, #19, .T. ) ;
#244 = EDGE_CURVE ( 'NONE', #37, #259, #126, .T. ) ;
#245 = CARTESIAN_POINT ( 'NONE',  ( 0.0000000000000000000, 0.0000000000000000000, -8.000000000000000000 ) ) ;
#246 = MANIFOLD_SOLID_BREP ( 'Fase3', #100 ) ;
#247 = CONICAL_SURFACE ( 'NONE', #128, 3.000000000000000444, 0.4048917862850834881 ) ;
#248 = DIRECTION ( 'NONE',  ( 0.0000000000000000000, 0.0000000000000000000, 1.000000000000000000 ) ) ;
#249 = ADVANCED_FACE ( 'NONE', ( #306 ), #158, .F. ) ;
#250 = CARTESIAN_POINT ( 'NONE',  ( -1.249999999999997558, 1.530808498934188859E-16, -8.000000000000000000 ) ) ;
#251 =( NAMED_UNIT ( * ) SI_UNIT ( $, .STERADIAN. ) SOLID_ANGLE_UNIT ( ) );
#252 = CARTESIAN_POINT ( 'NONE',  ( 0.0000000000000000000, 0.0000000000000000000, 0.0000000000000000000 ) ) ;
#253 = VECTOR ( 'NONE', #242, 1000.000000000000114 ) ;
#254 = ORIENTED_EDGE ( 'NONE', *, *, #185, .T. ) ;
#255 = CARTESIAN_POINT ( 'NONE',  ( 0.0000000000000000000, 0.0000000000000000000, 0.0000000000000000000 ) ) ;
#256 = CYLINDRICAL_SURFACE ( 'NONE', #289, 3.000000000000000444 ) ;
#257 = VERTEX_POINT ( 'NONE', #79 ) ;
#258 = CIRCLE ( 'NONE', #80, 1.249999999999997558 ) ;
#259 = VERTEX_POINT ( 'NONE', #276 ) ;
#260 = AXIS2_PLACEMENT_3D ( 'NONE', #24, #184, #49 ) ;
#261 = ADVANCED_FACE ( 'NONE', ( #31, #125 ), #299, .T. ) ;
#262 = UNCERTAINTY_MEASURE_WITH_UNIT (LENGTH_MEASURE( 1.000000000000000082E-05 ), #319, 'distance_accuracy_value', 'NONE');
#263 = CIRCLE ( 'NONE', #56, 3.000000000000000444 ) ;
#264 = DIRECTION ( 'NONE',  ( 0.0000000000000000000, 0.0000000000000000000, 1.000000000000000000 ) ) ;
#265 = SURFACE_STYLE_FILL_AREA ( #270 ) ;
#266 = EDGE_LOOP ( 'NONE', ( #183, #243, #122, #120 ) ) ;
#267 = DIRECTION ( 'NONE',  ( -0.0000000000000000000, -0.0000000000000000000, 1.000000000000000000 ) ) ;
#268 = AXIS2_PLACEMENT_3D ( 'NONE', #196, #297, #225 ) ;
#269 = CARTESIAN_POINT ( 'NONE',  ( 3.000000000000000444, 0.0000000000000000000, -9.000000000000001776 ) ) ;
#270 = FILL_AREA_STYLE ('',( #220 ) ) ;
#271 = FILL_AREA_STYLE_COLOUR ( '', #287 ) ;
#272 = MECHANICAL_DESIGN_GEOMETRIC_PRESENTATION_REPRESENTATION (  '', ( #43 ), #307 ) ;
#273 = CARTESIAN_POINT ( 'NONE',  ( 0.0000000000000000000, 0.0000000000000000000, -8.000000000000000000 ) ) ;
#274 = CARTESIAN_POINT ( 'NONE',  ( 0.0000000000000000000, 0.0000000000000000000, 0.0000000000000000000 ) ) ;
#275 = ORIENTED_EDGE ( 'NONE', *, *, #87, .F. ) ;
#276 = CARTESIAN_POINT ( 'NONE',  ( 1.249999999999998002, 0.0000000000000000000, 4.898425415289417328E-17 ) ) ;
#277 = AXIS2_PLACEMENT_3D ( 'NONE', #108, #304, #107 ) ;
#278 = AXIS2_PLACEMENT_3D ( 'NONE', #60, #241, #239 ) ;
#279 = CONICAL_SURFACE ( 'NONE', #73, 1.249999999999997558, 1.029744258676652091 ) ;
#280 = SURFACE_SIDE_STYLE ('',( #165 ) ) ;
#281 = APPLICATION_PROTOCOL_DEFINITION ( 'draft international standard', 'automotive_design', 1998, #83 ) ;
#282 = PRESENTATION_STYLE_ASSIGNMENT (( #302 ) ) ;
#283 = PRESENTATION_STYLE_ASSIGNMENT (( #154 ) ) ;
#284 = VERTEX_POINT ( 'NONE', #250 ) ;
#285 = PRODUCT_DEFINITION_SHAPE ( 'NONE', 'NONE',  #217 ) ;
#286 = DIRECTION ( 'NONE',  ( -0.0000000000000000000, -0.0000000000000000000, 1.000000000000000000 ) ) ;
#287 = COLOUR_RGB ( '',0.5019607843137254832, 0.5019607843137254832, 0.5019607843137254832 ) ;
#288 = ORIENTED_EDGE ( 'NONE', *, *, #244, .T. ) ;
#289 = AXIS2_PLACEMENT_3D ( 'NONE', #209, #248, #208 ) ;
#290 = VECTOR ( 'NONE', #21, 1000.000000000000000 ) ;
#291 = LINE ( 'NONE', #34, #182 ) ;
#292 = EDGE_LOOP ( 'NONE', ( #152, #214, #288, #54 ) ) ;
#293 = DIRECTION ( 'NONE',  ( 0.3939192985791677426, 0.0000000000000000000, 0.9191450300180578070 ) ) ;
#294 = ADVANCED_FACE ( 'NONE', ( #192 ), #26, .F. ) ;
#295 = SURFACE_SIDE_STYLE ('',( #265 ) ) ;
#296 = DIRECTION ( 'NONE',  ( -0.0000000000000000000, -0.0000000000000000000, 1.000000000000000000 ) ) ;
#297 = DIRECTION ( 'NONE',  ( 0.0000000000000000000, 0.0000000000000000000, 1.000000000000000000 ) ) ;
#298 = FILL_AREA_STYLE ('',( #230 ) ) ;
#299 = PLANE ( 'NONE',  #113 ) ;
#300 = CYLINDRICAL_SURFACE ( 'NONE', #268, 3.000000000000000444 ) ;
#301 = VERTEX_POINT ( 'NONE', #205 ) ;
#302 = SURFACE_STYLE_USAGE ( .BOTH. , #164 ) ;
#303 = STYLED_ITEM ( 'NONE', ( #282 ), #246 ) ;
#304 = DIRECTION ( 'NONE',  ( -0.0000000000000000000, -0.0000000000000000000, 1.000000000000000000 ) ) ;
#305 = ORIENTED_EDGE ( 'NONE', *, *, #52, .F. ) ;
#306 = FACE_OUTER_BOUND ( 'NONE', #28, .T. ) ;
#307 =( GEOMETRIC_REPRESENTATION_CONTEXT ( 3 ) GLOBAL_UNCERTAINTY_ASSIGNED_CONTEXT ( ( #44 ) ) GLOBAL_UNIT_ASSIGNED_CONTEXT ( ( #27, #167, #114 ) ) REPRESENTATION_CONTEXT ( 'NONE', 'WORKASPACE' ) );
#308 = ORIENTED_EDGE ( 'NONE', *, *, #85, .T. ) ;
#309 = ORIENTED_EDGE ( 'NONE', *, *, #123, .T. ) ;
#310 = ORIENTED_EDGE ( 'NONE', *, *, #119, .T. ) ;
#311 = AXIS2_PLACEMENT_3D ( 'NONE', #274, #210, #212 ) ;
#312 = ORIENTED_EDGE ( 'NONE', *, *, #145, .T. ) ;
#313 = DIRECTION ( 'NONE',  ( 0.0000000000000000000, 0.0000000000000000000, 1.000000000000000000 ) ) ;
#314 = EDGE_LOOP ( 'NONE', ( #67, #310, #308, #161 ) ) ;
#315 = AXIS2_PLACEMENT_3D ( 'NONE', #101, #296, #173 ) ;
#316 =( NAMED_UNIT ( * ) SI_UNIT ( $, .STERADIAN. ) SOLID_ANGLE_UNIT ( ) );
#317 = COLOUR_RGB ( '',1.000000000000000000, 1.000000000000000000, 0.5019607843137254832 ) ;
#318 = VECTOR ( 'NONE', #293, 1000.000000000000114 ) ;
#319 =( LENGTH_UNIT ( ) NAMED_UNIT ( * ) SI_UNIT ( .MILLI., .METRE. ) );
#320 =( NAMED_UNIT ( * ) SI_UNIT ( $, .STERADIAN. ) SOLID_ANGLE_UNIT ( ) );
#321 = CARTESIAN_POINT ( 'NONE',  ( -1.500000000000000888, 2.755455298081545271E-16, -12.50000000000000000 ) ) ;
#322 = FACE_OUTER_BOUND ( 'NONE', #219, .T. ) ;
#323 = VERTEX_POINT ( 'NONE', #321 ) ;
#324 = CARTESIAN_POINT ( 'NONE',  ( 1.249999999999997780, 0.0000000000000000000, 0.0000000000000000000 ) ) ;
ENDSEC;
END-ISO-10303-21;
