ISO-10303-21;
HEADER;
FILE_DESCRIPTION (( 'STEP AP214' ),
    '1' );
FILE_NAME ('38876~0.STEP',
    '2017-07-04T08:54:32',
    ( '' ),
    ( '' ),
    'SwSTEP 2.0',
    'SolidWorks 2016',
    '' );
FILE_SCHEMA (( 'AUTOMOTIVE_DESIGN' ));
ENDSEC;

DATA;
#1 = PLANE ( 'NONE',  #164 ) ;
#2 = PRODUCT_DEFINITION ( 'UNKNOWN', '', #319, #211 ) ;
#3 = EDGE_CURVE ( 'NONE', #367, #34, #233, .T. ) ;
#4 = CARTESIAN_POINT ( 'NONE',  ( 0.0000000000000000000, 0.5000000000000030000, -1.000000000000000000 ) ) ;
#5 = ORIENTED_EDGE ( 'NONE', *, *, #121, .T. ) ;
#6 = PRODUCT_DEFINITION_SHAPE ( 'NONE', 'NONE',  #2 ) ;
#7 = ORIENTED_EDGE ( 'NONE', *, *, #299, .T. ) ;
#8 = ADVANCED_FACE ( 'NONE', ( #178 ), #251, .T. ) ;
#9 = CARTESIAN_POINT ( 'NONE',  ( 6.123233995736750000E-017, 0.0000000000000000000, -0.4999999999999987200 ) ) ;
#10 = DIRECTION ( 'NONE',  ( -0.0000000000000000000, -1.000000000000000000, -0.0000000000000000000 ) ) ;
#11 = CONICAL_SURFACE ( 'NONE', #269, 0.4999999999999987200, 0.7853981633974466100 ) ;
#12 = CARTESIAN_POINT ( 'NONE',  ( 0.0000000000000000000, 13.99999999999999800, 0.0000000000000000000 ) ) ;
#13 = CARTESIAN_POINT ( 'NONE',  ( 0.0000000000000000000, 13.69999999999999900, -0.6458548115672617700 ) ) ;
#14 = PRESENTATION_STYLE_ASSIGNMENT (( #265 ) ) ;
#15 = ORIENTED_EDGE ( 'NONE', *, *, #282, .F. ) ;
#16 = ORIENTED_EDGE ( 'NONE', *, *, #121, .F. ) ;
#17 = CARTESIAN_POINT ( 'NONE',  ( 0.0000000000000000000, 13.39999999999999900, 0.0000000000000000000 ) ) ;
#18 = FACE_OUTER_BOUND ( 'NONE', #321, .T. ) ;
#19 = EDGE_CURVE ( 'NONE', #44, #216, #302, .T. ) ;
#20 = COLOUR_RGB ( '',0.7529411764705882200, 0.7529411764705882200, 0.7529411764705882200 ) ;
#21 = ORIENTED_EDGE ( 'NONE', *, *, #305, .T. ) ;
#22 = FACE_OUTER_BOUND ( 'NONE', #109, .T. ) ;
#23 = UNCERTAINTY_MEASURE_WITH_UNIT (LENGTH_MEASURE( 1.000000000000000100E-005 ), #137, 'distance_accuracy_value', 'NONE');
#24 = EDGE_LOOP ( 'NONE', ( #326, #303 ) ) ;
#25 = VECTOR ( 'NONE', #166, 1000.000000000000000 ) ;
#26 = SURFACE_SIDE_STYLE ('',( #301 ) ) ;
#27 = DIRECTION ( 'NONE',  ( 0.0000000000000000000, 0.0000000000000000000, -1.000000000000000000 ) ) ;
#28 = PRODUCT_CONTEXT ( 'NONE', #174, 'mechanical' ) ;
#29 = CARTESIAN_POINT ( 'NONE',  ( 0.0000000000000000000, 0.0000000000000000000, 0.4999999999999987200 ) ) ;
#30 = ORIENTED_EDGE ( 'NONE', *, *, #81, .F. ) ;
#31 = FACE_OUTER_BOUND ( 'NONE', #192, .T. ) ;
#32 =( GEOMETRIC_REPRESENTATION_CONTEXT ( 3 ) GLOBAL_UNCERTAINTY_ASSIGNED_CONTEXT ( ( #190 ) ) GLOBAL_UNIT_ASSIGNED_CONTEXT ( ( #292, #62, #94 ) ) REPRESENTATION_CONTEXT ( 'NONE', 'WORKASPACE' ) );
#33 = DIRECTION ( 'NONE',  ( -0.0000000000000000000, -1.000000000000000000, -0.0000000000000000000 ) ) ;
#34 = VERTEX_POINT ( 'NONE', #147 ) ;
#35 = CARTESIAN_POINT ( 'NONE',  ( 0.0000000000000000000, 0.0000000000000000000, 0.0000000000000000000 ) ) ;
#36 = DIRECTION ( 'NONE',  ( 0.0000000000000000000, 0.0000000000000000000, -1.000000000000000000 ) ) ;
#37 = FACE_BOUND ( 'NONE', #329, .T. ) ;
#38 = ORIENTED_EDGE ( 'NONE', *, *, #170, .F. ) ;
#39 = ADVANCED_FACE ( 'NONE', ( #169 ), #225, .T. ) ;
#40 = CARTESIAN_POINT ( 'NONE',  ( 0.0000000000000000000, 0.0000000000000000000, 0.0000000000000000000 ) ) ;
#41 = AXIS2_PLACEMENT_3D ( 'NONE', #113, #352, #228 ) ;
#42 = DIRECTION ( 'NONE',  ( -0.0000000000000000000, -1.000000000000000000, -0.0000000000000000000 ) ) ;
#43 = SHAPE_DEFINITION_REPRESENTATION ( #6, #181 ) ;
#44 = VERTEX_POINT ( 'NONE', #29 ) ;
#45 = DIRECTION ( 'NONE',  ( 0.0000000000000000000, 1.000000000000000000, 0.0000000000000000000 ) ) ;
#46 = ORIENTED_EDGE ( 'NONE', *, *, #347, .F. ) ;
#47 = DIRECTION ( 'NONE',  ( 0.0000000000000000000, -0.0000000000000000000, 1.000000000000000000 ) ) ;
#48 = DIRECTION ( 'NONE',  ( 0.0000000000000000000, 0.0000000000000000000, 1.000000000000000000 ) ) ;
#49 = DIRECTION ( 'NONE',  ( 6.123233995736782100E-017, -0.8660254037844380400, 0.5000000000000012200 ) ) ;
#50 = LINE ( 'NONE', #273, #191 ) ;
#51 = ORIENTED_EDGE ( 'NONE', *, *, #3, .T. ) ;
#52 = DIRECTION ( 'NONE',  ( 0.0000000000000000000, 0.0000000000000000000, -1.000000000000000000 ) ) ;
#53 = SURFACE_STYLE_FILL_AREA ( #330 ) ;
#54 = ORIENTED_EDGE ( 'NONE', *, *, #158, .T. ) ;
#55 = DIRECTION ( 'NONE',  ( 0.0000000000000000000, 0.7071067811865487900, 0.7071067811865463500 ) ) ;
#56 = CIRCLE ( 'NONE', #125, 0.1262395692965995500 ) ;
#57 = ORIENTED_EDGE ( 'NONE', *, *, #61, .T. ) ;
#58 = EDGE_CURVE ( 'NONE', #245, #354, #161, .T. ) ;
#59 = ADVANCED_FACE ( 'NONE', ( #328 ), #323, .T. ) ;
#60 = ORIENTED_EDGE ( 'NONE', *, *, #158, .F. ) ;
#61 = EDGE_CURVE ( 'NONE', #112, #203, #313, .T. ) ;
#62 =( NAMED_UNIT ( * ) PLANE_ANGLE_UNIT ( ) SI_UNIT ( $, .RADIAN. ) );
#63 = EDGE_LOOP ( 'NONE', ( #127, #38, #370, #179 ) ) ;
#64 = DIRECTION ( 'NONE',  ( -0.0000000000000000000, -1.000000000000000000, -0.0000000000000000000 ) ) ;
#65 = CIRCLE ( 'NONE', #324, 0.5999999999999999800 ) ;
#66 = CARTESIAN_POINT ( 'NONE',  ( 0.0000000000000000000, 0.5000000000000030000, 0.0000000000000000000 ) ) ;
#67 = ORIENTED_EDGE ( 'NONE', *, *, #152, .T. ) ;
#68 = DIRECTION ( 'NONE',  ( 0.0000000000000000000, -1.000000000000000000, -0.0000000000000000000 ) ) ;
#69 = AXIS2_PLACEMENT_3D ( 'NONE', #237, #206, #97 ) ;
#70 = DIRECTION ( 'NONE',  ( 0.0000000000000000000, 0.0000000000000000000, -1.000000000000000000 ) ) ;
#71 = CARTESIAN_POINT ( 'NONE',  ( 0.0000000000000000000, 0.0000000000000000000, 0.0000000000000000000 ) ) ;
#72 = CIRCLE ( 'NONE', #41, 1.050000000000000000 ) ;
#73 = ORIENTED_EDGE ( 'NONE', *, *, #299, .F. ) ;
#74 = CARTESIAN_POINT ( 'NONE',  ( 1.224646799147353200E-016, 6.999999999999999100, 1.000000000000000000 ) ) ;
#75 = DIRECTION ( 'NONE',  ( 0.0000000000000000000, 1.000000000000000000, 0.0000000000000000000 ) ) ;
#76 = DIRECTION ( 'NONE',  ( 0.0000000000000000000, 0.0000000000000000000, -1.000000000000000000 ) ) ;
#77 =( GEOMETRIC_REPRESENTATION_CONTEXT ( 3 ) GLOBAL_UNCERTAINTY_ASSIGNED_CONTEXT ( ( #23 ) ) GLOBAL_UNIT_ASSIGNED_CONTEXT ( ( #137, #253, #199 ) ) REPRESENTATION_CONTEXT ( 'NONE', 'WORKASPACE' ) );
#78 = SURFACE_STYLE_USAGE ( .BOTH. , #26 ) ;
#79 = AXIS2_PLACEMENT_3D ( 'NONE', #71, #274, #363 ) ;
#80 = CARTESIAN_POINT ( 'NONE',  ( 0.0000000000000000000, 13.00000000000000200, -1.050000000000000000 ) ) ;
#81 = EDGE_CURVE ( 'NONE', #203, #112, #146, .T. ) ;
#82 = ORIENTED_EDGE ( 'NONE', *, *, #362, .T. ) ;
#83 = CIRCLE ( 'NONE', #258, 1.050000000000000000 ) ;
#84 = VERTEX_POINT ( 'NONE', #4 ) ;
#85 = AXIS2_PLACEMENT_3D ( 'NONE', #248, #340, #76 ) ;
#86 = FACE_OUTER_BOUND ( 'NONE', #286, .T. ) ;
#87 = CARTESIAN_POINT ( 'NONE',  ( 0.0000000000000000000, 0.0000000000000000000, 0.0000000000000000000 ) ) ;
#88 = DIRECTION ( 'NONE',  ( 1.000000000000000000, 0.0000000000000000000, 0.0000000000000000000 ) ) ;
#89 = DIRECTION ( 'NONE',  ( -0.0000000000000000000, -1.000000000000000000, -0.0000000000000000000 ) ) ;
#90 =( NAMED_UNIT ( * ) SI_UNIT ( $, .STERADIAN. ) SOLID_ANGLE_UNIT ( ) );
#91 = ADVANCED_FACE ( 'NONE', ( #18 ), #11, .T. ) ;
#92 = ORIENTED_EDGE ( 'NONE', *, *, #347, .T. ) ;
#93 = AXIS2_PLACEMENT_3D ( 'NONE', #308, #10, #150 ) ;
#94 =( NAMED_UNIT ( * ) SI_UNIT ( $, .STERADIAN. ) SOLID_ANGLE_UNIT ( ) );
#95 = DIRECTION ( 'NONE',  ( -0.0000000000000000000, -1.000000000000000000, -0.0000000000000000000 ) ) ;
#96 = ADVANCED_FACE ( 'NONE', ( #165 ), #242, .T. ) ;
#97 = DIRECTION ( 'NONE',  ( 0.0000000000000000000, 0.0000000000000000000, -1.000000000000000000 ) ) ;
#98 = CARTESIAN_POINT ( 'NONE',  ( 0.0000000000000000000, 6.999999999999999100, 0.0000000000000000000 ) ) ;
#99 = EDGE_CURVE ( 'NONE', #101, #84, #197, .T. ) ;
#100 = DIRECTION ( 'NONE',  ( -0.0000000000000000000, -1.000000000000000000, -0.0000000000000000000 ) ) ;
#101 = VERTEX_POINT ( 'NONE', #334 ) ;
#102 = DIRECTION ( 'NONE',  ( 0.0000000000000000000, 1.000000000000000000, 0.0000000000000000000 ) ) ;
#103 = CIRCLE ( 'NONE', #290, 0.5999999999999999800 ) ;
#104 = AXIS2_PLACEMENT_3D ( 'NONE', #66, #268, #243 ) ;
#105 = DIRECTION ( 'NONE',  ( 0.0000000000000000000, 1.000000000000000000, 0.0000000000000000000 ) ) ;
#106 = DIRECTION ( 'NONE',  ( 0.0000000000000000000, -1.000000000000000000, -0.0000000000000000000 ) ) ;
#107 = CARTESIAN_POINT ( 'NONE',  ( 0.0000000000000000000, 0.0000000000000000000, 0.0000000000000000000 ) ) ;
#108 = ORIENTED_EDGE ( 'NONE', *, *, #126, .T. ) ;
#109 = EDGE_LOOP ( 'NONE', ( #57, #129, #247, #231 ) ) ;
#110 = STYLED_ITEM ( 'NONE', ( #14 ), #181 ) ;
#111 = FACE_OUTER_BOUND ( 'NONE', #343, .T. ) ;
#112 = VERTEX_POINT ( 'NONE', #331 ) ;
#113 = CARTESIAN_POINT ( 'NONE',  ( 0.0000000000000000000, 13.00000000000000200, 0.0000000000000000000 ) ) ;
#114 = DIRECTION ( 'NONE',  ( 0.0000000000000000000, -0.8660254037844380400, -0.5000000000000012200 ) ) ;
#115 = STYLED_ITEM ( 'NONE', ( #222 ), #344 ) ;
#116 = DIRECTION ( 'NONE',  ( 0.0000000000000000000, 0.0000000000000000000, -1.000000000000000000 ) ) ;
#117 = EDGE_LOOP ( 'NONE', ( #357, #134, #167, #287 ) ) ;
#118 = SURFACE_SIDE_STYLE ('',( #53 ) ) ;
#119 = CARTESIAN_POINT ( 'NONE',  ( 0.0000000000000000000, 0.0000000000000000000, 0.0000000000000000000 ) ) ;
#120 = VERTEX_POINT ( 'NONE', #151 ) ;
#121 = EDGE_CURVE ( 'NONE', #245, #235, #202, .T. ) ;
#122 = CARTESIAN_POINT ( 'NONE',  ( 0.0000000000000000000, 13.00000000000000200, 0.0000000000000000000 ) ) ;
#123 = ORIENTED_EDGE ( 'NONE', *, *, #99, .F. ) ;
#124 = DIRECTION ( 'NONE',  ( -0.0000000000000000000, -1.000000000000000000, -0.0000000000000000000 ) ) ;
#125 = AXIS2_PLACEMENT_3D ( 'NONE', #12, #102, #130 ) ;
#126 = EDGE_CURVE ( 'NONE', #216, #84, #224, .T. ) ;
#127 = ORIENTED_EDGE ( 'NONE', *, *, #305, .F. ) ;
#128 = DIRECTION ( 'NONE',  ( 0.0000000000000000000, 0.0000000000000000000, -1.000000000000000000 ) ) ;
#129 = ORIENTED_EDGE ( 'NONE', *, *, #341, .T. ) ;
#130 = DIRECTION ( 'NONE',  ( 0.0000000000000000000, 0.0000000000000000000, 1.000000000000000000 ) ) ;
#131 = CARTESIAN_POINT ( 'NONE',  ( 9.184850993605141000E-017, 0.0000000000000000000, -0.4999999999999987200 ) ) ;
#132 = AXIS2_PLACEMENT_3D ( 'NONE', #369, #75, #47 ) ;
#133 = CYLINDRICAL_SURFACE ( 'NONE', #138, 1.000000000000000000 ) ;
#134 = ORIENTED_EDGE ( 'NONE', *, *, #81, .T. ) ;
#135 = CARTESIAN_POINT ( 'NONE',  ( 1.224646799147353200E-016, 0.0000000000000000000, 1.000000000000000000 ) ) ;
#136 = TOROIDAL_SURFACE ( 'NONE', #241, 0.1262395692965995500, 0.5999999999999999800 ) ;
#137 =( LENGTH_UNIT ( ) NAMED_UNIT ( * ) SI_UNIT ( .MILLI., .METRE. ) );
#138 = AXIS2_PLACEMENT_3D ( 'NONE', #310, #187, #52 ) ;
#139 = ORIENTED_EDGE ( 'NONE', *, *, #183, .F. ) ;
#140 = ORIENTED_EDGE ( 'NONE', *, *, #19, .F. ) ;
#141 = AXIS2_PLACEMENT_3D ( 'NONE', #17, #214, #48 ) ;
#142 = DIRECTION ( 'NONE',  ( 0.0000000000000000000, 0.0000000000000000000, -1.000000000000000000 ) ) ;
#143 = DIRECTION ( 'NONE',  ( 0.0000000000000000000, 0.0000000000000000000, -1.000000000000000000 ) ) ;
#144 = ORIENTED_EDGE ( 'NONE', *, *, #183, .T. ) ;
#145 = ADVANCED_FACE ( 'NONE', ( #342 ), #364, .T. ) ;
#146 = CIRCLE ( 'NONE', #368, 1.000000000000000000 ) ;
#147 = CARTESIAN_POINT ( 'NONE',  ( 0.0000000000000000000, 7.000000000000000000, -1.050000000000000000 ) ) ;
#148 = ORIENTED_EDGE ( 'NONE', *, *, #126, .F. ) ;
#149 = AXIS2_PLACEMENT_3D ( 'NONE', #107, #261, #88 ) ;
#150 = DIRECTION ( 'NONE',  ( 0.0000000000000000000, 0.0000000000000000000, 1.000000000000000000 ) ) ;
#151 = CARTESIAN_POINT ( 'NONE',  ( 0.0000000000000000000, 13.99999999999999800, 0.1262395692965995500 ) ) ;
#152 = EDGE_CURVE ( 'NONE', #320, #367, #50, .T. ) ;
#153 = VECTOR ( 'NONE', #55, 1000.000000000000000 ) ;
#154 = VECTOR ( 'NONE', #239, 1000.000000000000000 ) ;
#155 = PLANE ( 'NONE',  #371 ) ;
#156 = PRESENTATION_LAYER_ASSIGNMENT (  '', '', ( #115 ) ) ;
#157 = UNCERTAINTY_MEASURE_WITH_UNIT (LENGTH_MEASURE( 1.000000000000000100E-005 ), #236, 'distance_accuracy_value', 'NONE');
#158 = EDGE_CURVE ( 'NONE', #34, #367, #83, .T. ) ;
#159 = VERTEX_POINT ( 'NONE', #333 ) ;
#160 = DIRECTION ( 'NONE',  ( 0.0000000000000000000, 0.0000000000000000000, -1.000000000000000000 ) ) ;
#161 = LINE ( 'NONE', #295, #278 ) ;
#162 = ORIENTED_EDGE ( 'NONE', *, *, #19, .T. ) ;
#163 = DIRECTION ( 'NONE',  ( -0.0000000000000000000, -1.000000000000000000, -0.0000000000000000000 ) ) ;
#164 = AXIS2_PLACEMENT_3D ( 'NONE', #201, #106, #218 ) ;
#165 = FACE_OUTER_BOUND ( 'NONE', #361, .T. ) ;
#166 = DIRECTION ( 'NONE',  ( -0.0000000000000000000, -1.000000000000000000, -0.0000000000000000000 ) ) ;
#167 = ORIENTED_EDGE ( 'NONE', *, *, #255, .T. ) ;
#168 = CONICAL_SURFACE ( 'NONE', #79, 0.4999999999999987200, 0.7853981633974466100 ) ;
#169 = FACE_OUTER_BOUND ( 'NONE', #311, .T. ) ;
#170 = EDGE_CURVE ( 'NONE', #235, #245, #198, .T. ) ;
#171 = CARTESIAN_POINT ( 'NONE',  ( 0.0000000000000000000, 13.39999999999999900, 0.0000000000000000000 ) ) ;
#172 = FILL_AREA_STYLE ('',( #353 ) ) ;
#173 = AXIS2_PLACEMENT_3D ( 'NONE', #122, #89, #27 ) ;
#174 = APPLICATION_CONTEXT ( 'automotive_design' ) ;
#175 = FILL_AREA_STYLE_COLOUR ( '', #20 ) ;
#176 = EDGE_LOOP ( 'NONE', ( #5, #351, #73, #221 ) ) ;
#177 = DIRECTION ( 'NONE',  ( 0.0000000000000000000, 1.000000000000000000, 0.0000000000000000000 ) ) ;
#178 = FACE_OUTER_BOUND ( 'NONE', #117, .T. ) ;
#179 = ORIENTED_EDGE ( 'NONE', *, *, #217, .F. ) ;
#180 = DIRECTION ( 'NONE',  ( -0.0000000000000000000, -1.000000000000000000, -0.0000000000000000000 ) ) ;
#181 = ADVANCED_BREP_SHAPE_REPRESENTATION ( '38876~0', ( #344, #149 ), #32 ) ;
#182 = ADVANCED_FACE ( 'NONE', ( #86 ), #155, .T. ) ;
#183 = EDGE_CURVE ( 'NONE', #354, #34, #366, .T. ) ;
#184 = CARTESIAN_POINT ( 'NONE',  ( 0.0000000000000000000, 7.000000000000000000, 0.0000000000000000000 ) ) ;
#185 = CARTESIAN_POINT ( 'NONE',  ( 0.0000000000000000000, 0.0000000000000000000, -1.050000000000000000 ) ) ;
#186 = ORIENTED_EDGE ( 'NONE', *, *, #61, .F. ) ;
#187 = DIRECTION ( 'NONE',  ( -0.0000000000000000000, -1.000000000000000000, -0.0000000000000000000 ) ) ;
#188 = DIRECTION ( 'NONE',  ( 0.0000000000000000000, 0.0000000000000000000, 1.000000000000000000 ) ) ;
#189 = LINE ( 'NONE', #309, #322 ) ;
#190 = UNCERTAINTY_MEASURE_WITH_UNIT (LENGTH_MEASURE( 1.000000000000000100E-005 ), #292, 'distance_accuracy_value', 'NONE');
#191 = VECTOR ( 'NONE', #306, 1000.000000000000000 ) ;
#192 = EDGE_LOOP ( 'NONE', ( #148, #140, #92, #348 ) ) ;
#193 = CARTESIAN_POINT ( 'NONE',  ( 0.0000000000000000000, 13.00000000000000200, 0.0000000000000000000 ) ) ;
#194 = DIRECTION ( 'NONE',  ( 0.0000000000000000000, 0.0000000000000000000, 1.000000000000000000 ) ) ;
#195 = PRODUCT_RELATED_PRODUCT_CATEGORY ( 'part', '', ( #291 ) ) ;
#196 = ORIENTED_EDGE ( 'NONE', *, *, #3, .F. ) ;
#197 = CIRCLE ( 'NONE', #104, 1.000000000000000000 ) ;
#198 = CIRCLE ( 'NONE', #93, 0.6458548115672617700 ) ;
#199 =( NAMED_UNIT ( * ) SI_UNIT ( $, .STERADIAN. ) SOLID_ANGLE_UNIT ( ) );
#200 = MECHANICAL_DESIGN_GEOMETRIC_PRESENTATION_REPRESENTATION (  '', ( #115 ), #77 ) ;
#201 = CARTESIAN_POINT ( 'NONE',  ( 1.000000000000000000, 6.999999999999999100, 0.0000000000000000000 ) ) ;
#202 = CIRCLE ( 'NONE', #208, 0.6458548115672617700 ) ;
#203 = VERTEX_POINT ( 'NONE', #74 ) ;
#204 = CARTESIAN_POINT ( 'NONE',  ( 0.0000000000000000000, 6.999999999999999100, 0.0000000000000000000 ) ) ;
#205 = ADVANCED_FACE ( 'NONE', ( #31 ), #168, .T. ) ;
#206 = DIRECTION ( 'NONE',  ( -0.0000000000000000000, -1.000000000000000000, -0.0000000000000000000 ) ) ;
#207 = CIRCLE ( 'NONE', #307, 1.050000000000000000 ) ;
#208 = AXIS2_PLACEMENT_3D ( 'NONE', #238, #95, #210 ) ;
#209 = ORIENTED_EDGE ( 'NONE', *, *, #254, .F. ) ;
#210 = DIRECTION ( 'NONE',  ( 0.0000000000000000000, 0.0000000000000000000, 1.000000000000000000 ) ) ;
#211 = PRODUCT_DEFINITION_CONTEXT ( 'detailed design', #229, 'design' ) ;
#212 = CARTESIAN_POINT ( 'NONE',  ( 0.0000000000000000000, 0.0000000000000000000, 0.0000000000000000000 ) ) ;
#213 = CARTESIAN_POINT ( 'NONE',  ( 0.0000000000000000000, 13.39999999999999900, 0.1262395692965995500 ) ) ;
#214 = DIRECTION ( 'NONE',  ( 0.0000000000000000000, 1.000000000000000000, 0.0000000000000000000 ) ) ;
#215 = VECTOR ( 'NONE', #42, 1000.000000000000000 ) ;
#216 = VERTEX_POINT ( 'NONE', #131 ) ;
#217 = EDGE_CURVE ( 'NONE', #159, #120, #56, .T. ) ;
#218 = DIRECTION ( 'NONE',  ( 0.0000000000000000000, 0.0000000000000000000, -1.000000000000000000 ) ) ;
#219 = AXIS2_PLACEMENT_3D ( 'NONE', #212, #100, #70 ) ;
#220 = CARTESIAN_POINT ( 'NONE',  ( 1.545988844648211300E-017, 13.39999999999999900, -0.1262395692965995500 ) ) ;
#221 = ORIENTED_EDGE ( 'NONE', *, *, #58, .F. ) ;
#222 = PRESENTATION_STYLE_ASSIGNMENT (( #78 ) ) ;
#223 = ORIENTED_EDGE ( 'NONE', *, *, #232, .T. ) ;
#224 = LINE ( 'NONE', #9, #154 ) ;
#225 = CONICAL_SURFACE ( 'NONE', #173, 1.050000000000000000, 0.5235987755983002600 ) ;
#226 =( GEOMETRIC_REPRESENTATION_CONTEXT ( 3 ) GLOBAL_UNCERTAINTY_ASSIGNED_CONTEXT ( ( #157 ) ) GLOBAL_UNIT_ASSIGNED_CONTEXT ( ( #236, #300, #90 ) ) REPRESENTATION_CONTEXT ( 'NONE', 'WORKASPACE' ) );
#227 = LINE ( 'NONE', #252, #153 ) ;
#228 = DIRECTION ( 'NONE',  ( 0.0000000000000000000, 0.0000000000000000000, -1.000000000000000000 ) ) ;
#229 = APPLICATION_CONTEXT ( 'automotive_design' ) ;
#230 = DIRECTION ( 'NONE',  ( -0.0000000000000000000, -1.000000000000000000, -0.0000000000000000000 ) ) ;
#231 = ORIENTED_EDGE ( 'NONE', *, *, #255, .F. ) ;
#232 = EDGE_CURVE ( 'NONE', #216, #44, #349, .T. ) ;
#233 = CIRCLE ( 'NONE', #350, 1.050000000000000000 ) ;
#234 = CARTESIAN_POINT ( 'NONE',  ( 0.0000000000000000000, 7.000000000000000000, 0.0000000000000000000 ) ) ;
#235 = VERTEX_POINT ( 'NONE', #314 ) ;
#236 =( LENGTH_UNIT ( ) NAMED_UNIT ( * ) SI_UNIT ( .MILLI., .METRE. ) );
#237 = CARTESIAN_POINT ( 'NONE',  ( 0.0000000000000000000, 0.0000000000000000000, 0.0000000000000000000 ) ) ;
#238 = CARTESIAN_POINT ( 'NONE',  ( 0.0000000000000000000, 13.69999999999999900, 0.0000000000000000000 ) ) ;
#239 = DIRECTION ( 'NONE',  ( 8.659560562354918100E-017, 0.7071067811865487900, -0.7071067811865463500 ) ) ;
#240 = FACE_OUTER_BOUND ( 'NONE', #24, .T. ) ;
#241 = AXIS2_PLACEMENT_3D ( 'NONE', #171, #105, #194 ) ;
#242 = CYLINDRICAL_SURFACE ( 'NONE', #69, 1.050000000000000000 ) ;
#243 = DIRECTION ( 'NONE',  ( 0.0000000000000000000, 0.0000000000000000000, -1.000000000000000000 ) ) ;
#244 = DIRECTION ( 'NONE',  ( -0.0000000000000000000, -1.000000000000000000, -0.0000000000000000000 ) ) ;
#245 = VERTEX_POINT ( 'NONE', #13 ) ;
#246 = DIRECTION ( 'NONE',  ( -1.000000000000000000, 0.0000000000000000000, 0.0000000000000000000 ) ) ;
#247 = ORIENTED_EDGE ( 'NONE', *, *, #99, .T. ) ;
#248 = CARTESIAN_POINT ( 'NONE',  ( 0.0000000000000000000, 0.5000000000000030000, 0.0000000000000000000 ) ) ;
#249 = PLANE ( 'NONE',  #132 ) ;
#250 = AXIS2_PLACEMENT_3D ( 'NONE', #365, #45, #315 ) ;
#251 = CYLINDRICAL_SURFACE ( 'NONE', #316, 1.000000000000000000 ) ;
#252 = CARTESIAN_POINT ( 'NONE',  ( 0.0000000000000000000, 0.0000000000000000000, 0.4999999999999987200 ) ) ;
#253 =( NAMED_UNIT ( * ) PLANE_ANGLE_UNIT ( ) SI_UNIT ( $, .RADIAN. ) );
#254 = EDGE_CURVE ( 'NONE', #120, #159, #360, .T. ) ;
#255 = EDGE_CURVE ( 'NONE', #112, #84, #189, .T. ) ;
#256 = EDGE_CURVE ( 'NONE', #235, #320, #288, .T. ) ;
#257 = LINE ( 'NONE', #135, #25 ) ;
#258 = AXIS2_PLACEMENT_3D ( 'NONE', #184, #124, #36 ) ;
#259 = CARTESIAN_POINT ( 'NONE',  ( 1.285879139104721000E-016, 7.000000000000000000, 1.050000000000000000 ) ) ;
#260 = CARTESIAN_POINT ( 'NONE',  ( 0.0000000000000000000, 13.00000000000000200, 0.0000000000000000000 ) ) ;
#261 = DIRECTION ( 'NONE',  ( 0.0000000000000000000, 0.0000000000000000000, 1.000000000000000000 ) ) ;
#262 = ORIENTED_EDGE ( 'NONE', *, *, #170, .T. ) ;
#263 = DIRECTION ( 'NONE',  ( -0.0000000000000000000, -1.000000000000000000, -0.0000000000000000000 ) ) ;
#264 = ADVANCED_FACE ( 'NONE', ( #240 ), #249, .T. ) ;
#265 = SURFACE_STYLE_USAGE ( .BOTH. , #118 ) ;
#266 = DIRECTION ( 'NONE',  ( 0.0000000000000000000, 0.0000000000000000000, -1.000000000000000000 ) ) ;
#267 = APPLICATION_PROTOCOL_DEFINITION ( 'draft international standard', 'automotive_design', 1998, #229 ) ;
#268 = DIRECTION ( 'NONE',  ( 0.0000000000000000000, 1.000000000000000000, 0.0000000000000000000 ) ) ;
#269 = AXIS2_PLACEMENT_3D ( 'NONE', #119, #177, #297 ) ;
#270 = TOROIDAL_SURFACE ( 'NONE', #141, 0.1262395692965995500, 0.5999999999999999800 ) ;
#271 = ORIENTED_EDGE ( 'NONE', *, *, #256, .F. ) ;
#272 = ADVANCED_FACE ( 'NONE', ( #22 ), #133, .T. ) ;
#273 = CARTESIAN_POINT ( 'NONE',  ( 1.285879139104721000E-016, 0.0000000000000000000, 1.050000000000000000 ) ) ;
#274 = DIRECTION ( 'NONE',  ( 0.0000000000000000000, 1.000000000000000000, 0.0000000000000000000 ) ) ;
#275 = DIRECTION ( 'NONE',  ( 0.0000000000000000000, 0.0000000000000000000, -1.000000000000000000 ) ) ;
#276 = EDGE_LOOP ( 'NONE', ( #16, #21, #209, #15 ) ) ;
#277 = AXIS2_PLACEMENT_3D ( 'NONE', #281, #244, #160 ) ;
#278 = VECTOR ( 'NONE', #114, 999.9999999999998900 ) ;
#279 = ORIENTED_EDGE ( 'NONE', *, *, #58, .T. ) ;
#280 = CARTESIAN_POINT ( 'NONE',  ( 1.285879139104721000E-016, 13.00000000000000200, 1.050000000000000000 ) ) ;
#281 = CARTESIAN_POINT ( 'NONE',  ( 0.0000000000000000000, 0.0000000000000000000, 0.0000000000000000000 ) ) ;
#282 = EDGE_CURVE ( 'NONE', #235, #120, #103, .T. ) ;
#283 = FACE_OUTER_BOUND ( 'NONE', #63, .T. ) ;
#284 = EDGE_CURVE ( 'NONE', #84, #101, #355, .T. ) ;
#285 = MECHANICAL_DESIGN_GEOMETRIC_PRESENTATION_REPRESENTATION (  '', ( #110 ), #226 ) ;
#286 = EDGE_LOOP ( 'NONE', ( #162, #223 ) ) ;
#287 = ORIENTED_EDGE ( 'NONE', *, *, #284, .T. ) ;
#288 = LINE ( 'NONE', #280, #312 ) ;
#289 = ORIENTED_EDGE ( 'NONE', *, *, #362, .F. ) ;
#290 = AXIS2_PLACEMENT_3D ( 'NONE', #213, #246, #188 ) ;
#291 = PRODUCT ( '38876~0', '38876~0', '', ( #28 ) ) ;
#292 =( LENGTH_UNIT ( ) NAMED_UNIT ( * ) SI_UNIT ( .MILLI., .METRE. ) );
#293 = COLOUR_RGB ( '',0.7529411764705882200, 0.7529411764705882200, 0.7529411764705882200 ) ;
#294 = DIRECTION ( 'NONE',  ( 0.0000000000000000000, 0.0000000000000000000, -1.000000000000000000 ) ) ;
#295 = CARTESIAN_POINT ( 'NONE',  ( 0.0000000000000000000, 13.00000000000000200, -1.050000000000000000 ) ) ;
#296 = APPLICATION_PROTOCOL_DEFINITION ( 'draft international standard', 'automotive_design', 1998, #174 ) ;
#297 = DIRECTION ( 'NONE',  ( 0.0000000000000000000, 0.0000000000000000000, 1.000000000000000000 ) ) ;
#298 = ADVANCED_FACE ( 'NONE', ( #283 ), #270, .T. ) ;
#299 = EDGE_CURVE ( 'NONE', #354, #320, #207, .T. ) ;
#300 =( NAMED_UNIT ( * ) PLANE_ANGLE_UNIT ( ) SI_UNIT ( $, .RADIAN. ) );
#301 = SURFACE_STYLE_FILL_AREA ( #172 ) ;
#302 = CIRCLE ( 'NONE', #356, 0.4999999999999987200 ) ;
#303 = ORIENTED_EDGE ( 'NONE', *, *, #217, .T. ) ;
#304 = DIRECTION ( 'NONE',  ( -0.0000000000000000000, -1.000000000000000000, -0.0000000000000000000 ) ) ;
#305 = EDGE_CURVE ( 'NONE', #245, #159, #65, .T. ) ;
#306 = DIRECTION ( 'NONE',  ( -0.0000000000000000000, -1.000000000000000000, -0.0000000000000000000 ) ) ;
#307 = AXIS2_PLACEMENT_3D ( 'NONE', #193, #317, #142 ) ;
#308 = CARTESIAN_POINT ( 'NONE',  ( 0.0000000000000000000, 13.69999999999999900, 0.0000000000000000000 ) ) ;
#309 = CARTESIAN_POINT ( 'NONE',  ( 0.0000000000000000000, 0.0000000000000000000, -1.000000000000000000 ) ) ;
#310 = CARTESIAN_POINT ( 'NONE',  ( 0.0000000000000000000, 0.0000000000000000000, 0.0000000000000000000 ) ) ;
#311 = EDGE_LOOP ( 'NONE', ( #271, #262, #279, #289 ) ) ;
#312 = VECTOR ( 'NONE', #49, 999.9999999999998900 ) ;
#313 = CIRCLE ( 'NONE', #335, 1.000000000000000000 ) ;
#314 = CARTESIAN_POINT ( 'NONE',  ( 1.038411583402242500E-016, 13.69999999999999900, 0.6458548115672617700 ) ) ;
#315 = DIRECTION ( 'NONE',  ( 0.0000000000000000000, 0.0000000000000000000, 1.000000000000000000 ) ) ;
#316 = AXIS2_PLACEMENT_3D ( 'NONE', #35, #64, #116 ) ;
#317 = DIRECTION ( 'NONE',  ( -0.0000000000000000000, -1.000000000000000000, -0.0000000000000000000 ) ) ;
#318 = DIRECTION ( 'NONE',  ( 1.000000000000000000, -0.0000000000000000000, 1.224646799147353200E-016 ) ) ;
#319 = PRODUCT_DEFINITION_FORMATION_WITH_SPECIFIED_SOURCE ( 'ANY', '', #291, .NOT_KNOWN. ) ;
#320 = VERTEX_POINT ( 'NONE', #337 ) ;
#321 = EDGE_LOOP ( 'NONE', ( #336, #108, #123, #46 ) ) ;
#322 = VECTOR ( 'NONE', #163, 1000.000000000000000 ) ;
#323 = CONICAL_SURFACE ( 'NONE', #332, 1.050000000000000000, 0.5235987755983002600 ) ;
#324 = AXIS2_PLACEMENT_3D ( 'NONE', #220, #318, #345 ) ;
#325 = DIRECTION ( 'NONE',  ( 0.0000000000000000000, 0.0000000000000000000, -1.000000000000000000 ) ) ;
#326 = ORIENTED_EDGE ( 'NONE', *, *, #254, .T. ) ;
#327 = ADVANCED_FACE ( 'NONE', ( #111, #37 ), #1, .T. ) ;
#328 = FACE_OUTER_BOUND ( 'NONE', #176, .T. ) ;
#329 = EDGE_LOOP ( 'NONE', ( #186, #30 ) ) ;
#330 = FILL_AREA_STYLE ('',( #175 ) ) ;
#331 = CARTESIAN_POINT ( 'NONE',  ( 0.0000000000000000000, 6.999999999999999100, -1.000000000000000000 ) ) ;
#332 = AXIS2_PLACEMENT_3D ( 'NONE', #260, #33, #294 ) ;
#333 = CARTESIAN_POINT ( 'NONE',  ( 4.727714560822931400E-017, 13.99999999999999800, -0.1262395692965995500 ) ) ;
#334 = CARTESIAN_POINT ( 'NONE',  ( 1.224646799147353200E-016, 0.5000000000000030000, 1.000000000000000000 ) ) ;
#335 = AXIS2_PLACEMENT_3D ( 'NONE', #204, #230, #266 ) ;
#336 = ORIENTED_EDGE ( 'NONE', *, *, #232, .F. ) ;
#337 = CARTESIAN_POINT ( 'NONE',  ( 1.285879139104721000E-016, 13.00000000000000200, 1.050000000000000000 ) ) ;
#338 = CLOSED_SHELL ( 'NONE', ( #358, #91, #272, #145, #59, #264, #39, #96, #327, #8, #182, #205, #298 ) ) ;
#339 = PRESENTATION_LAYER_ASSIGNMENT (  '', '', ( #110 ) ) ;
#340 = DIRECTION ( 'NONE',  ( 0.0000000000000000000, 1.000000000000000000, 0.0000000000000000000 ) ) ;
#341 = EDGE_CURVE ( 'NONE', #203, #101, #257, .T. ) ;
#342 = FACE_OUTER_BOUND ( 'NONE', #346, .T. ) ;
#343 = EDGE_LOOP ( 'NONE', ( #54, #51 ) ) ;
#344 = MANIFOLD_SOLID_BREP ( 'Verrundung1', #338 ) ;
#345 = DIRECTION ( 'NONE',  ( 1.224646799147353000E-016, 0.0000000000000000000, -1.000000000000000000 ) ) ;
#346 = EDGE_LOOP ( 'NONE', ( #7, #67, #60, #139 ) ) ;
#347 = EDGE_CURVE ( 'NONE', #44, #101, #227, .T. ) ;
#348 = ORIENTED_EDGE ( 'NONE', *, *, #284, .F. ) ;
#349 = CIRCLE ( 'NONE', #277, 0.4999999999999987200 ) ;
#350 = AXIS2_PLACEMENT_3D ( 'NONE', #234, #180, #325 ) ;
#351 = ORIENTED_EDGE ( 'NONE', *, *, #256, .T. ) ;
#352 = DIRECTION ( 'NONE',  ( -0.0000000000000000000, -1.000000000000000000, -0.0000000000000000000 ) ) ;
#353 = FILL_AREA_STYLE_COLOUR ( '', #293 ) ;
#354 = VERTEX_POINT ( 'NONE', #80 ) ;
#355 = CIRCLE ( 'NONE', #85, 1.000000000000000000 ) ;
#356 = AXIS2_PLACEMENT_3D ( 'NONE', #87, #263, #143 ) ;
#357 = ORIENTED_EDGE ( 'NONE', *, *, #341, .F. ) ;
#358 = ADVANCED_FACE ( 'NONE', ( #359 ), #136, .T. ) ;
#359 = FACE_OUTER_BOUND ( 'NONE', #276, .T. ) ;
#360 = CIRCLE ( 'NONE', #250, 0.1262395692965995500 ) ;
#361 = EDGE_LOOP ( 'NONE', ( #372, #82, #144, #196 ) ) ;
#362 = EDGE_CURVE ( 'NONE', #320, #354, #72, .T. ) ;
#363 = DIRECTION ( 'NONE',  ( 0.0000000000000000000, 0.0000000000000000000, 1.000000000000000000 ) ) ;
#364 = CYLINDRICAL_SURFACE ( 'NONE', #219, 1.050000000000000000 ) ;
#365 = CARTESIAN_POINT ( 'NONE',  ( 0.0000000000000000000, 13.99999999999999800, 0.0000000000000000000 ) ) ;
#366 = LINE ( 'NONE', #185, #215 ) ;
#367 = VERTEX_POINT ( 'NONE', #259 ) ;
#368 = AXIS2_PLACEMENT_3D ( 'NONE', #98, #304, #128 ) ;
#369 = CARTESIAN_POINT ( 'NONE',  ( 0.4726497308103730400, 13.99999999999999800, 0.0000000000000000000 ) ) ;
#370 = ORIENTED_EDGE ( 'NONE', *, *, #282, .T. ) ;
#371 = AXIS2_PLACEMENT_3D ( 'NONE', #40, #68, #275 ) ;
#372 = ORIENTED_EDGE ( 'NONE', *, *, #152, .F. ) ;
ENDSEC;
END-ISO-10303-21;
