ISO-10303-21;
HEADER;
FILE_DESCRIPTION (( 'STEP AP214' ),
    '1' );
FILE_NAME ('38878~0.STEP',
    '2017-07-04T08:56:10',
    ( '' ),
    ( '' ),
    'SwSTEP 2.0',
    'SolidWorks 2016',
    '' );
FILE_SCHEMA (( 'AUTOMOTIVE_DESIGN' ));
ENDSEC;

DATA;
#1 = VERTEX_POINT ( 'NONE', #269 ) ;
#2 = CARTESIAN_POINT ( 'NONE',  ( 0.0000000000000000000, 0.0000000000000000000, 0.0000000000000000000 ) ) ;
#3 = ORIENTED_EDGE ( 'NONE', *, *, #106, .T. ) ;
#4 = LINE ( 'NONE', #363, #350 ) ;
#5 = DIRECTION ( 'NONE',  ( 0.0000000000000000000, 0.0000000000000000000, -1.000000000000000000 ) ) ;
#6 = AXIS2_PLACEMENT_3D ( 'NONE', #173, #170, #19 ) ;
#7 = FACE_OUTER_BOUND ( 'NONE', #325, .T. ) ;
#8 = ORIENTED_EDGE ( 'NONE', *, *, #172, .F. ) ;
#9 = LINE ( 'NONE', #226, #154 ) ;
#10 = ORIENTED_EDGE ( 'NONE', *, *, #245, .T. ) ;
#11 = CARTESIAN_POINT ( 'NONE',  ( 0.0000000000000000000, 0.0000000000000000000, 0.0000000000000000000 ) ) ;
#12 = SURFACE_SIDE_STYLE ('',( #259 ) ) ;
#13 = CYLINDRICAL_SURFACE ( 'NONE', #355, 1.149999999999999900 ) ;
#14 = CARTESIAN_POINT ( 'NONE',  ( 0.0000000000000000000, 13.39999999999999900, 0.2262395692965993900 ) ) ;
#15 = EDGE_CURVE ( 'NONE', #360, #354, #260, .T. ) ;
#16 = ORIENTED_EDGE ( 'NONE', *, *, #31, .T. ) ;
#17 = PLANE ( 'NONE',  #156 ) ;
#18 =( GEOMETRIC_REPRESENTATION_CONTEXT ( 3 ) GLOBAL_UNCERTAINTY_ASSIGNED_CONTEXT ( ( #239 ) ) GLOBAL_UNIT_ASSIGNED_CONTEXT ( ( #227, #79, #308 ) ) REPRESENTATION_CONTEXT ( 'NONE', 'WORKASPACE' ) );
#19 = DIRECTION ( 'NONE',  ( 0.0000000000000000000, 0.0000000000000000000, 1.000000000000000000 ) ) ;
#20 = CIRCLE ( 'NONE', #346, 1.149999999999999900 ) ;
#21 = EDGE_LOOP ( 'NONE', ( #95, #195, #64, #345 ) ) ;
#22 = CARTESIAN_POINT ( 'NONE',  ( 5.952361359970282500E-017, 13.99999999999999800, -0.2262395692965993900 ) ) ;
#23 = CARTESIAN_POINT ( 'NONE',  ( 0.0000000000000000000, 0.0000000000000000000, 0.0000000000000000000 ) ) ;
#24 = UNCERTAINTY_MEASURE_WITH_UNIT (LENGTH_MEASURE( 1.000000000000000100E-005 ), #66, 'distance_accuracy_value', 'NONE');
#25 = ORIENTED_EDGE ( 'NONE', *, *, #15, .T. ) ;
#26 = ORIENTED_EDGE ( 'NONE', *, *, #307, .T. ) ;
#27 = PRODUCT_RELATED_PRODUCT_CATEGORY ( 'part', '', ( #218 ) ) ;
#28 = DIRECTION ( 'NONE',  ( 0.0000000000000000000, 0.0000000000000000000, 1.000000000000000000 ) ) ;
#29 = CARTESIAN_POINT ( 'NONE',  ( 0.0000000000000000000, 0.0000000000000000000, 0.4999999999999987200 ) ) ;
#30 = DIRECTION ( 'NONE',  ( 0.0000000000000000000, 0.7071067811865487900, 0.7071067811865463500 ) ) ;
#31 = EDGE_CURVE ( 'NONE', #1, #351, #311, .T. ) ;
#32 = FILL_AREA_STYLE ('',( #321 ) ) ;
#33 = CARTESIAN_POINT ( 'NONE',  ( 0.5726497308103728500, 13.99999999999999800, 0.0000000000000000000 ) ) ;
#34 = SURFACE_STYLE_FILL_AREA ( #32 ) ;
#35 = ORIENTED_EDGE ( 'NONE', *, *, #165, .F. ) ;
#36 = APPLICATION_PROTOCOL_DEFINITION ( 'draft international standard', 'automotive_design', 1998, #127 ) ;
#37 = ORIENTED_EDGE ( 'NONE', *, *, #159, .F. ) ;
#38 = DIRECTION ( 'NONE',  ( 0.0000000000000000000, 0.0000000000000000000, 1.000000000000000000 ) ) ;
#39 = CYLINDRICAL_SURFACE ( 'NONE', #241, 1.000000000000000000 ) ;
#40 = VERTEX_POINT ( 'NONE', #94 ) ;
#41 = ADVANCED_FACE ( 'NONE', ( #230 ), #185, .T. ) ;
#42 = MECHANICAL_DESIGN_GEOMETRIC_PRESENTATION_REPRESENTATION (  '', ( #288 ), #231 ) ;
#43 = ADVANCED_FACE ( 'NONE', ( #180 ), #132, .T. ) ;
#44 = ORIENTED_EDGE ( 'NONE', *, *, #182, .F. ) ;
#45 = ORIENTED_EDGE ( 'NONE', *, *, #182, .T. ) ;
#46 = CARTESIAN_POINT ( 'NONE',  ( 1.160876263316978200E-016, 13.69999999999999900, 0.7458548115672624100 ) ) ;
#47 = COLOUR_RGB ( '',0.7529411764705882200, 0.7529411764705882200, 0.7529411764705882200 ) ;
#48 = ORIENTED_EDGE ( 'NONE', *, *, #15, .F. ) ;
#49 = DIRECTION ( 'NONE',  ( 0.0000000000000000000, -1.000000000000000000, -0.0000000000000000000 ) ) ;
#50 = CARTESIAN_POINT ( 'NONE',  ( 1.224646799147353200E-016, 6.999999999999999100, 1.000000000000000000 ) ) ;
#51 = AXIS2_PLACEMENT_3D ( 'NONE', #362, #141, #338 ) ;
#52 = CARTESIAN_POINT ( 'NONE',  ( 0.0000000000000000000, 0.0000000000000000000, 0.0000000000000000000 ) ) ;
#53 = EDGE_CURVE ( 'NONE', #128, #187, #283, .T. ) ;
#54 = CLOSED_SHELL ( 'NONE', ( #74, #133, #300, #107, #301, #105, #43, #134, #157, #324, #222, #41, #217 ) ) ;
#55 = DIRECTION ( 'NONE',  ( 0.0000000000000000000, 0.0000000000000000000, -1.000000000000000000 ) ) ;
#56 = DIRECTION ( 'NONE',  ( -0.0000000000000000000, -1.000000000000000000, -0.0000000000000000000 ) ) ;
#57 = DIRECTION ( 'NONE',  ( 0.0000000000000000000, 0.0000000000000000000, -1.000000000000000000 ) ) ;
#58 = EDGE_LOOP ( 'NONE', ( #8, #298, #143, #37 ) ) ;
#59 = CARTESIAN_POINT ( 'NONE',  ( 6.123233995736750000E-017, 0.0000000000000000000, -0.4999999999999987200 ) ) ;
#60 = DIRECTION ( 'NONE',  ( 0.0000000000000000000, 0.0000000000000000000, -1.000000000000000000 ) ) ;
#61 = CARTESIAN_POINT ( 'NONE',  ( 0.0000000000000000000, 13.39999999999999900, 0.0000000000000000000 ) ) ;
#62 = EDGE_CURVE ( 'NONE', #155, #295, #112, .T. ) ;
#63 = COLOUR_RGB ( '',0.7529411764705882200, 0.7529411764705882200, 0.7529411764705882200 ) ;
#64 = ORIENTED_EDGE ( 'NONE', *, *, #159, .T. ) ;
#65 = APPLICATION_CONTEXT ( 'automotive_design' ) ;
#66 =( LENGTH_UNIT ( ) NAMED_UNIT ( * ) SI_UNIT ( .MILLI., .METRE. ) );
#67 = SHAPE_DEFINITION_REPRESENTATION ( #251, #70 ) ;
#68 = ORIENTED_EDGE ( 'NONE', *, *, #80, .T. ) ;
#69 = PRODUCT_DEFINITION_CONTEXT ( 'detailed design', #65, 'design' ) ;
#70 = ADVANCED_BREP_SHAPE_REPRESENTATION ( '38878~0', ( #101, #304 ), #163 ) ;
#71 = AXIS2_PLACEMENT_3D ( 'NONE', #188, #219, #77 ) ;
#72 = FACE_OUTER_BOUND ( 'NONE', #192, .T. ) ;
#73 = ORIENTED_EDGE ( 'NONE', *, *, #106, .F. ) ;
#74 = ADVANCED_FACE ( 'NONE', ( #367 ), #104, .T. ) ;
#75 = EDGE_CURVE ( 'NONE', #187, #128, #151, .T. ) ;
#76 = PRESENTATION_STYLE_ASSIGNMENT (( #110 ) ) ;
#77 = DIRECTION ( 'NONE',  ( 0.0000000000000000000, 0.0000000000000000000, -1.000000000000000000 ) ) ;
#78 = PLANE ( 'NONE',  #121 ) ;
#79 =( NAMED_UNIT ( * ) PLANE_ANGLE_UNIT ( ) SI_UNIT ( $, .RADIAN. ) );
#80 = EDGE_CURVE ( 'NONE', #202, #1, #221, .T. ) ;
#81 = FACE_OUTER_BOUND ( 'NONE', #109, .T. ) ;
#82 = ORIENTED_EDGE ( 'NONE', *, *, #245, .F. ) ;
#83 = EDGE_LOOP ( 'NONE', ( #341, #236 ) ) ;
#84 = CARTESIAN_POINT ( 'NONE',  ( 0.0000000000000000000, 13.99999999999999800, 0.0000000000000000000 ) ) ;
#85 = DIRECTION ( 'NONE',  ( 0.0000000000000000000, 0.0000000000000000000, -1.000000000000000000 ) ) ;
#86 = CARTESIAN_POINT ( 'NONE',  ( 0.0000000000000000000, 0.0000000000000000000, 0.0000000000000000000 ) ) ;
#87 = MECHANICAL_DESIGN_GEOMETRIC_PRESENTATION_REPRESENTATION (  '', ( #169 ), #18 ) ;
#88 = VECTOR ( 'NONE', #197, 999.9999999999998900 ) ;
#89 = CARTESIAN_POINT ( 'NONE',  ( 2.770635643795562400E-017, 13.39999999999999900, -0.2262395692965993900 ) ) ;
#90 = DIRECTION ( 'NONE',  ( -0.0000000000000000000, -1.000000000000000000, -0.0000000000000000000 ) ) ;
#91 = TOROIDAL_SURFACE ( 'NONE', #6, 0.2262395692965993900, 0.5999999999999999800 ) ;
#92 = VERTEX_POINT ( 'NONE', #122 ) ;
#93 = DIRECTION ( 'NONE',  ( -0.0000000000000000000, -1.000000000000000000, -0.0000000000000000000 ) ) ;
#94 = CARTESIAN_POINT ( 'NONE',  ( 0.0000000000000000000, 7.000000000000000000, -1.149999999999999900 ) ) ;
#95 = ORIENTED_EDGE ( 'NONE', *, *, #220, .F. ) ;
#96 = DIRECTION ( 'NONE',  ( 1.000000000000000000, 0.0000000000000000000, 0.0000000000000000000 ) ) ;
#97 = AXIS2_PLACEMENT_3D ( 'NONE', #247, #208, #28 ) ;
#98 = CARTESIAN_POINT ( 'NONE',  ( 1.408343819019456000E-016, 7.000000000000000000, 1.149999999999999900 ) ) ;
#99 = CIRCLE ( 'NONE', #224, 0.4999999999999987200 ) ;
#100 = ORIENTED_EDGE ( 'NONE', *, *, #126, .F. ) ;
#101 = MANIFOLD_SOLID_BREP ( 'Verrundung1', #54 ) ;
#102 = PLANE ( 'NONE',  #342 ) ;
#103 = FACE_OUTER_BOUND ( 'NONE', #312, .T. ) ;
#104 = TOROIDAL_SURFACE ( 'NONE', #233, 0.2262395692965993900, 0.5999999999999999800 ) ;
#105 = ADVANCED_FACE ( 'NONE', ( #215 ), #102, .T. ) ;
#106 = EDGE_CURVE ( 'NONE', #360, #348, #99, .T. ) ;
#107 = ADVANCED_FACE ( 'NONE', ( #206 ), #13, .T. ) ;
#108 = CIRCLE ( 'NONE', #281, 1.149999999999999900 ) ;
#109 = EDGE_LOOP ( 'NONE', ( #3, #26 ) ) ;
#110 = SURFACE_STYLE_USAGE ( .BOTH. , #12 ) ;
#111 = CARTESIAN_POINT ( 'NONE',  ( 0.0000000000000000000, 0.0000000000000000000, 0.0000000000000000000 ) ) ;
#112 = CIRCLE ( 'NONE', #190, 0.7458548115672624100 ) ;
#113 = ORIENTED_EDGE ( 'NONE', *, *, #126, .T. ) ;
#114 = AXIS2_PLACEMENT_3D ( 'NONE', #204, #234, #115 ) ;
#115 = DIRECTION ( 'NONE',  ( 0.0000000000000000000, 0.0000000000000000000, 1.000000000000000000 ) ) ;
#116 = EDGE_LOOP ( 'NONE', ( #305, #152 ) ) ;
#117 = ORIENTED_EDGE ( 'NONE', *, *, #337, .T. ) ;
#118 = DIRECTION ( 'NONE',  ( -0.0000000000000000000, -1.000000000000000000, -0.0000000000000000000 ) ) ;
#119 = DIRECTION ( 'NONE',  ( 1.000000000000000000, -0.0000000000000000000, 1.224646799147353200E-016 ) ) ;
#120 = CARTESIAN_POINT ( 'NONE',  ( 1.224646799147353200E-016, 0.5000000000000030000, 1.000000000000000000 ) ) ;
#121 = AXIS2_PLACEMENT_3D ( 'NONE', #331, #49, #261 ) ;
#122 = CARTESIAN_POINT ( 'NONE',  ( 0.0000000000000000000, 0.5000000000000030000, -1.000000000000000000 ) ) ;
#123 = CONICAL_SURFACE ( 'NONE', #196, 1.149999999999999900, 0.5235987755983002600 ) ;
#124 = EDGE_LOOP ( 'NONE', ( #82, #73, #25, #279 ) ) ;
#125 = CARTESIAN_POINT ( 'NONE',  ( 9.184850993605141000E-017, 0.0000000000000000000, -0.4999999999999987200 ) ) ;
#126 = EDGE_CURVE ( 'NONE', #187, #92, #9, .T. ) ;
#127 = APPLICATION_CONTEXT ( 'automotive_design' ) ;
#128 = VERTEX_POINT ( 'NONE', #50 ) ;
#129 = DIRECTION ( 'NONE',  ( 0.0000000000000000000, 0.0000000000000000000, -1.000000000000000000 ) ) ;
#130 = DIRECTION ( 'NONE',  ( -0.0000000000000000000, -1.000000000000000000, -0.0000000000000000000 ) ) ;
#131 = FACE_OUTER_BOUND ( 'NONE', #139, .T. ) ;
#132 = CONICAL_SURFACE ( 'NONE', #136, 1.149999999999999900, 0.5235987755983002600 ) ;
#133 = ADVANCED_FACE ( 'NONE', ( #103 ), #252, .T. ) ;
#134 = ADVANCED_FACE ( 'NONE', ( #364 ), #344, .T. ) ;
#135 = ORIENTED_EDGE ( 'NONE', *, *, #165, .T. ) ;
#136 = AXIS2_PLACEMENT_3D ( 'NONE', #181, #296, #272 ) ;
#137 = DIRECTION ( 'NONE',  ( 0.0000000000000000000, 1.000000000000000000, 0.0000000000000000000 ) ) ;
#138 = FACE_OUTER_BOUND ( 'NONE', #243, .T. ) ;
#139 = EDGE_LOOP ( 'NONE', ( #278, #135, #365, #100 ) ) ;
#140 = CARTESIAN_POINT ( 'NONE',  ( 1.408343819019456000E-016, 13.00000000000000200, 1.149999999999999900 ) ) ;
#141 = DIRECTION ( 'NONE',  ( -0.0000000000000000000, -1.000000000000000000, -0.0000000000000000000 ) ) ;
#142 = CARTESIAN_POINT ( 'NONE',  ( 0.0000000000000000000, 0.5000000000000030000, 0.0000000000000000000 ) ) ;
#143 = ORIENTED_EDGE ( 'NONE', *, *, #291, .F. ) ;
#144 = DIRECTION ( 'NONE',  ( 0.0000000000000000000, -1.000000000000000000, -0.0000000000000000000 ) ) ;
#145 = AXIS2_PLACEMENT_3D ( 'NONE', #89, #119, #265 ) ;
#146 = LINE ( 'NONE', #176, #255 ) ;
#147 = VECTOR ( 'NONE', #30, 1000.000000000000000 ) ;
#148 = DIRECTION ( 'NONE',  ( -0.0000000000000000000, -1.000000000000000000, -0.0000000000000000000 ) ) ;
#149 = DIRECTION ( 'NONE',  ( -0.0000000000000000000, -1.000000000000000000, -0.0000000000000000000 ) ) ;
#150 = APPLICATION_PROTOCOL_DEFINITION ( 'draft international standard', 'automotive_design', 1998, #65 ) ;
#151 = CIRCLE ( 'NONE', #212, 1.000000000000000000 ) ;
#152 = ORIENTED_EDGE ( 'NONE', *, *, #285, .T. ) ;
#153 = AXIS2_PLACEMENT_3D ( 'NONE', #178, #370, #57 ) ;
#154 = VECTOR ( 'NONE', #336, 1000.000000000000000 ) ;
#155 = VERTEX_POINT ( 'NONE', #46 ) ;
#156 = AXIS2_PLACEMENT_3D ( 'NONE', #86, #144, #171 ) ;
#157 = ADVANCED_FACE ( 'NONE', ( #138, #158 ), #78, .T. ) ;
#158 = FACE_BOUND ( 'NONE', #83, .T. ) ;
#159 = EDGE_CURVE ( 'NONE', #155, #161, #372, .T. ) ;
#160 = VECTOR ( 'NONE', #149, 1000.000000000000000 ) ;
#161 = VERTEX_POINT ( 'NONE', #164 ) ;
#162 = DIRECTION ( 'NONE',  ( 0.0000000000000000000, 1.000000000000000000, 0.0000000000000000000 ) ) ;
#163 =( GEOMETRIC_REPRESENTATION_CONTEXT ( 3 ) GLOBAL_UNCERTAINTY_ASSIGNED_CONTEXT ( ( #24 ) ) GLOBAL_UNIT_ASSIGNED_CONTEXT ( ( #66, #347, #371 ) ) REPRESENTATION_CONTEXT ( 'NONE', 'WORKASPACE' ) );
#164 = CARTESIAN_POINT ( 'NONE',  ( 0.0000000000000000000, 13.99999999999999800, 0.2262395692965993900 ) ) ;
#165 = EDGE_CURVE ( 'NONE', #128, #354, #4, .T. ) ;
#166 = FILL_AREA_STYLE ('',( #353 ) ) ;
#167 = CIRCLE ( 'NONE', #145, 0.5999999999999999800 ) ;
#168 = ORIENTED_EDGE ( 'NONE', *, *, #80, .F. ) ;
#169 = STYLED_ITEM ( 'NONE', ( #76 ), #101 ) ;
#170 = DIRECTION ( 'NONE',  ( 0.0000000000000000000, 1.000000000000000000, 0.0000000000000000000 ) ) ;
#171 = DIRECTION ( 'NONE',  ( 0.0000000000000000000, 0.0000000000000000000, -1.000000000000000000 ) ) ;
#172 = EDGE_CURVE ( 'NONE', #295, #155, #179, .T. ) ;
#173 = CARTESIAN_POINT ( 'NONE',  ( 0.0000000000000000000, 13.39999999999999900, 0.0000000000000000000 ) ) ;
#174 = ORIENTED_EDGE ( 'NONE', *, *, #207, .T. ) ;
#175 = DIRECTION ( 'NONE',  ( 8.659560562354918100E-017, 0.7071067811865487900, -0.7071067811865463500 ) ) ;
#176 = CARTESIAN_POINT ( 'NONE',  ( 0.0000000000000000000, 0.0000000000000000000, -1.149999999999999900 ) ) ;
#177 = PRODUCT_DEFINITION ( 'UNKNOWN', '', #277, #69 ) ;
#178 = CARTESIAN_POINT ( 'NONE',  ( 0.0000000000000000000, 6.999999999999999100, 0.0000000000000000000 ) ) ;
#179 = CIRCLE ( 'NONE', #51, 0.7458548115672624100 ) ;
#180 = FACE_OUTER_BOUND ( 'NONE', #293, .T. ) ;
#181 = CARTESIAN_POINT ( 'NONE',  ( 0.0000000000000000000, 13.00000000000000200, 0.0000000000000000000 ) ) ;
#182 = EDGE_CURVE ( 'NONE', #155, #1, #322, .T. ) ;
#183 =( NAMED_UNIT ( * ) SI_UNIT ( $, .STERADIAN. ) SOLID_ANGLE_UNIT ( ) );
#184 = CIRCLE ( 'NONE', #114, 0.2262395692965993900 ) ;
#185 = CONICAL_SURFACE ( 'NONE', #97, 0.4999999999999987200, 0.7853981633974466100 ) ;
#186 = DIRECTION ( 'NONE',  ( -0.0000000000000000000, -1.000000000000000000, -0.0000000000000000000 ) ) ;
#187 = VERTEX_POINT ( 'NONE', #198 ) ;
#188 = CARTESIAN_POINT ( 'NONE',  ( 0.0000000000000000000, 13.00000000000000200, 0.0000000000000000000 ) ) ;
#189 = AXIS2_PLACEMENT_3D ( 'NONE', #14, #306, #359 ) ;
#190 = AXIS2_PLACEMENT_3D ( 'NONE', #297, #130, #38 ) ;
#191 = ORIENTED_EDGE ( 'NONE', *, *, #207, .F. ) ;
#192 = EDGE_LOOP ( 'NONE', ( #35, #289, #113, #302 ) ) ;
#193 = DIRECTION ( 'NONE',  ( -0.0000000000000000000, -1.000000000000000000, -0.0000000000000000000 ) ) ;
#194 = CYLINDRICAL_SURFACE ( 'NONE', #356, 1.000000000000000000 ) ;
#195 = ORIENTED_EDGE ( 'NONE', *, *, #62, .F. ) ;
#196 = AXIS2_PLACEMENT_3D ( 'NONE', #366, #56, #314 ) ;
#197 = DIRECTION ( 'NONE',  ( 6.123233995736782100E-017, -0.8660254037844380400, 0.5000000000000012200 ) ) ;
#198 = CARTESIAN_POINT ( 'NONE',  ( 0.0000000000000000000, 6.999999999999999100, -1.000000000000000000 ) ) ;
#199 = EDGE_CURVE ( 'NONE', #354, #92, #329, .T. ) ;
#200 = DIRECTION ( 'NONE',  ( 0.0000000000000000000, 0.0000000000000000000, -1.000000000000000000 ) ) ;
#201 = ORIENTED_EDGE ( 'NONE', *, *, #172, .T. ) ;
#202 = VERTEX_POINT ( 'NONE', #287 ) ;
#203 = CARTESIAN_POINT ( 'NONE',  ( 0.0000000000000000000, 0.0000000000000000000, 0.0000000000000000000 ) ) ;
#204 = CARTESIAN_POINT ( 'NONE',  ( 0.0000000000000000000, 13.99999999999999800, 0.0000000000000000000 ) ) ;
#205 = CIRCLE ( 'NONE', #210, 1.000000000000000000 ) ;
#206 = FACE_OUTER_BOUND ( 'NONE', #256, .T. ) ;
#207 = EDGE_CURVE ( 'NONE', #295, #202, #318, .T. ) ;
#208 = DIRECTION ( 'NONE',  ( 0.0000000000000000000, 1.000000000000000000, 0.0000000000000000000 ) ) ;
#209 = PRODUCT_CONTEXT ( 'NONE', #127, 'mechanical' ) ;
#210 = AXIS2_PLACEMENT_3D ( 'NONE', #339, #313, #55 ) ;
#211 = ORIENTED_EDGE ( 'NONE', *, *, #352, .T. ) ;
#212 = AXIS2_PLACEMENT_3D ( 'NONE', #249, #186, #5 ) ;
#213 = DIRECTION ( 'NONE',  ( -0.0000000000000000000, -1.000000000000000000, -0.0000000000000000000 ) ) ;
#214 = EDGE_CURVE ( 'NONE', #202, #40, #146, .T. ) ;
#215 = FACE_OUTER_BOUND ( 'NONE', #116, .T. ) ;
#216 = ORIENTED_EDGE ( 'NONE', *, *, #199, .F. ) ;
#217 = ADVANCED_FACE ( 'NONE', ( #276 ), #91, .T. ) ;
#218 = PRODUCT ( '38878~0', '38878~0', '', ( #209 ) ) ;
#219 = DIRECTION ( 'NONE',  ( -0.0000000000000000000, -1.000000000000000000, -0.0000000000000000000 ) ) ;
#220 = EDGE_CURVE ( 'NONE', #295, #303, #167, .T. ) ;
#221 = CIRCLE ( 'NONE', #71, 1.149999999999999900 ) ;
#222 = ADVANCED_FACE ( 'NONE', ( #81 ), #17, .T. ) ;
#223 = DIRECTION ( 'NONE',  ( 0.0000000000000000000, 0.0000000000000000000, -1.000000000000000000 ) ) ;
#224 = AXIS2_PLACEMENT_3D ( 'NONE', #11, #357, #284 ) ;
#225 = ORIENTED_EDGE ( 'NONE', *, *, #275, .T. ) ;
#226 = CARTESIAN_POINT ( 'NONE',  ( 0.0000000000000000000, 0.0000000000000000000, -1.000000000000000000 ) ) ;
#227 =( LENGTH_UNIT ( ) NAMED_UNIT ( * ) SI_UNIT ( .MILLI., .METRE. ) );
#228 = DIRECTION ( 'NONE',  ( 0.0000000000000000000, 0.0000000000000000000, -1.000000000000000000 ) ) ;
#229 = DIRECTION ( 'NONE',  ( 0.0000000000000000000, -0.0000000000000000000, 1.000000000000000000 ) ) ;
#230 = FACE_OUTER_BOUND ( 'NONE', #124, .T. ) ;
#231 =( GEOMETRIC_REPRESENTATION_CONTEXT ( 3 ) GLOBAL_UNCERTAINTY_ASSIGNED_CONTEXT ( ( #361 ) ) GLOBAL_UNIT_ASSIGNED_CONTEXT ( ( #294, #320, #183 ) ) REPRESENTATION_CONTEXT ( 'NONE', 'WORKASPACE' ) );
#232 = DIRECTION ( 'NONE',  ( 0.0000000000000000000, 0.0000000000000000000, 1.000000000000000000 ) ) ;
#233 = AXIS2_PLACEMENT_3D ( 'NONE', #61, #237, #250 ) ;
#234 = DIRECTION ( 'NONE',  ( 0.0000000000000000000, 1.000000000000000000, 0.0000000000000000000 ) ) ;
#235 = LINE ( 'NONE', #59, #282 ) ;
#236 = ORIENTED_EDGE ( 'NONE', *, *, #53, .F. ) ;
#237 = DIRECTION ( 'NONE',  ( 0.0000000000000000000, 1.000000000000000000, 0.0000000000000000000 ) ) ;
#238 = DIRECTION ( 'NONE',  ( -0.0000000000000000000, -1.000000000000000000, -0.0000000000000000000 ) ) ;
#239 = UNCERTAINTY_MEASURE_WITH_UNIT (LENGTH_MEASURE( 1.000000000000000100E-005 ), #227, 'distance_accuracy_value', 'NONE');
#240 = CARTESIAN_POINT ( 'NONE',  ( 0.0000000000000000000, 0.0000000000000000000, 0.4999999999999987200 ) ) ;
#241 = AXIS2_PLACEMENT_3D ( 'NONE', #203, #90, #85 ) ;
#242 = CIRCLE ( 'NONE', #349, 0.4999999999999987200 ) ;
#243 = EDGE_LOOP ( 'NONE', ( #225, #117 ) ) ;
#244 = ORIENTED_EDGE ( 'NONE', *, *, #214, .F. ) ;
#245 = EDGE_CURVE ( 'NONE', #348, #92, #235, .T. ) ;
#246 = SURFACE_SIDE_STYLE ('',( #34 ) ) ;
#247 = CARTESIAN_POINT ( 'NONE',  ( 0.0000000000000000000, 0.0000000000000000000, 0.0000000000000000000 ) ) ;
#248 = CARTESIAN_POINT ( 'NONE',  ( 0.0000000000000000000, 7.000000000000000000, 0.0000000000000000000 ) ) ;
#249 = CARTESIAN_POINT ( 'NONE',  ( 0.0000000000000000000, 6.999999999999999100, 0.0000000000000000000 ) ) ;
#250 = DIRECTION ( 'NONE',  ( 0.0000000000000000000, 0.0000000000000000000, 1.000000000000000000 ) ) ;
#251 = PRODUCT_DEFINITION_SHAPE ( 'NONE', 'NONE',  #177 ) ;
#252 = CONICAL_SURFACE ( 'NONE', #332, 0.4999999999999987200, 0.7853981633974466100 ) ;
#253 = AXIS2_PLACEMENT_3D ( 'NONE', #333, #258, #223 ) ;
#254 = EDGE_CURVE ( 'NONE', #92, #354, #205, .T. ) ;
#255 = VECTOR ( 'NONE', #343, 1000.000000000000000 ) ;
#256 = EDGE_LOOP ( 'NONE', ( #68, #16, #319, #244 ) ) ;
#257 = DIRECTION ( 'NONE',  ( -0.0000000000000000000, -1.000000000000000000, -0.0000000000000000000 ) ) ;
#258 = DIRECTION ( 'NONE',  ( -0.0000000000000000000, -1.000000000000000000, -0.0000000000000000000 ) ) ;
#259 = SURFACE_STYLE_FILL_AREA ( #166 ) ;
#260 = LINE ( 'NONE', #240, #147 ) ;
#261 = DIRECTION ( 'NONE',  ( 0.0000000000000000000, 0.0000000000000000000, -1.000000000000000000 ) ) ;
#262 = DIRECTION ( 'NONE',  ( 0.0000000000000000000, -0.8660254037844380400, -0.5000000000000012200 ) ) ;
#263 = DIRECTION ( 'NONE',  ( 0.0000000000000000000, 0.0000000000000000000, -1.000000000000000000 ) ) ;
#264 = CIRCLE ( 'NONE', #326, 1.149999999999999900 ) ;
#265 = DIRECTION ( 'NONE',  ( 1.224646799147353000E-016, 0.0000000000000000000, -1.000000000000000000 ) ) ;
#266 = CARTESIAN_POINT ( 'NONE',  ( 0.0000000000000000000, 0.0000000000000000000, 0.0000000000000000000 ) ) ;
#267 = AXIS2_PLACEMENT_3D ( 'NONE', #142, #162, #263 ) ;
#268 = DIRECTION ( 'NONE',  ( 0.0000000000000000000, 0.0000000000000000000, -1.000000000000000000 ) ) ;
#269 = CARTESIAN_POINT ( 'NONE',  ( 1.408343819019456000E-016, 13.00000000000000200, 1.149999999999999900 ) ) ;
#270 = ORIENTED_EDGE ( 'NONE', *, *, #214, .T. ) ;
#271 = CARTESIAN_POINT ( 'NONE',  ( 0.0000000000000000000, 13.00000000000000200, 0.0000000000000000000 ) ) ;
#272 = DIRECTION ( 'NONE',  ( 0.0000000000000000000, 0.0000000000000000000, -1.000000000000000000 ) ) ;
#273 = SURFACE_STYLE_USAGE ( .BOTH. , #246 ) ;
#274 = ORIENTED_EDGE ( 'NONE', *, *, #352, .F. ) ;
#275 = EDGE_CURVE ( 'NONE', #40, #351, #20, .T. ) ;
#276 = FACE_OUTER_BOUND ( 'NONE', #21, .T. ) ;
#277 = PRODUCT_DEFINITION_FORMATION_WITH_SPECIFIED_SOURCE ( 'ANY', '', #218, .NOT_KNOWN. ) ;
#278 = ORIENTED_EDGE ( 'NONE', *, *, #75, .T. ) ;
#279 = ORIENTED_EDGE ( 'NONE', *, *, #254, .F. ) ;
#280 = DIRECTION ( 'NONE',  ( 0.0000000000000000000, 0.0000000000000000000, 1.000000000000000000 ) ) ;
#281 = AXIS2_PLACEMENT_3D ( 'NONE', #271, #213, #60 ) ;
#282 = VECTOR ( 'NONE', #175, 1000.000000000000000 ) ;
#283 = CIRCLE ( 'NONE', #153, 1.000000000000000000 ) ;
#284 = DIRECTION ( 'NONE',  ( 0.0000000000000000000, 0.0000000000000000000, -1.000000000000000000 ) ) ;
#285 = EDGE_CURVE ( 'NONE', #303, #161, #184, .T. ) ;
#286 = CARTESIAN_POINT ( 'NONE',  ( 0.0000000000000000000, 13.00000000000000200, -1.149999999999999900 ) ) ;
#287 = CARTESIAN_POINT ( 'NONE',  ( 0.0000000000000000000, 13.00000000000000200, -1.149999999999999900 ) ) ;
#288 = STYLED_ITEM ( 'NONE', ( #328 ), #70 ) ;
#289 = ORIENTED_EDGE ( 'NONE', *, *, #53, .T. ) ;
#290 = CARTESIAN_POINT ( 'NONE',  ( 0.0000000000000000000, 7.000000000000000000, 0.0000000000000000000 ) ) ;
#291 = EDGE_CURVE ( 'NONE', #161, #303, #309, .T. ) ;
#292 = DIRECTION ( 'NONE',  ( 0.0000000000000000000, 1.000000000000000000, 0.0000000000000000000 ) ) ;
#293 = EDGE_LOOP ( 'NONE', ( #44, #323, #174, #274 ) ) ;
#294 =( LENGTH_UNIT ( ) NAMED_UNIT ( * ) SI_UNIT ( .MILLI., .METRE. ) );
#295 = VERTEX_POINT ( 'NONE', #340 ) ;
#296 = DIRECTION ( 'NONE',  ( -0.0000000000000000000, -1.000000000000000000, -0.0000000000000000000 ) ) ;
#297 = CARTESIAN_POINT ( 'NONE',  ( 0.0000000000000000000, 13.69999999999999900, 0.0000000000000000000 ) ) ;
#298 = ORIENTED_EDGE ( 'NONE', *, *, #220, .T. ) ;
#299 = PRESENTATION_LAYER_ASSIGNMENT (  '', '', ( #169 ) ) ;
#300 = ADVANCED_FACE ( 'NONE', ( #131 ), #39, .T. ) ;
#301 = ADVANCED_FACE ( 'NONE', ( #7 ), #123, .T. ) ;
#302 = ORIENTED_EDGE ( 'NONE', *, *, #254, .T. ) ;
#303 = VERTEX_POINT ( 'NONE', #22 ) ;
#304 = AXIS2_PLACEMENT_3D ( 'NONE', #2, #317, #96 ) ;
#305 = ORIENTED_EDGE ( 'NONE', *, *, #291, .T. ) ;
#306 = DIRECTION ( 'NONE',  ( -1.000000000000000000, 0.0000000000000000000, 0.0000000000000000000 ) ) ;
#307 = EDGE_CURVE ( 'NONE', #348, #360, #242, .T. ) ;
#308 =( NAMED_UNIT ( * ) SI_UNIT ( $, .STERADIAN. ) SOLID_ANGLE_UNIT ( ) );
#309 = CIRCLE ( 'NONE', #315, 0.2262395692965993900 ) ;
#310 = DIRECTION ( 'NONE',  ( 0.0000000000000000000, 1.000000000000000000, 0.0000000000000000000 ) ) ;
#311 = LINE ( 'NONE', #316, #160 ) ;
#312 = EDGE_LOOP ( 'NONE', ( #335, #10, #216, #48 ) ) ;
#313 = DIRECTION ( 'NONE',  ( 0.0000000000000000000, 1.000000000000000000, 0.0000000000000000000 ) ) ;
#314 = DIRECTION ( 'NONE',  ( 0.0000000000000000000, 0.0000000000000000000, -1.000000000000000000 ) ) ;
#315 = AXIS2_PLACEMENT_3D ( 'NONE', #84, #292, #232 ) ;
#316 = CARTESIAN_POINT ( 'NONE',  ( 1.408343819019456000E-016, 0.0000000000000000000, 1.149999999999999900 ) ) ;
#317 = DIRECTION ( 'NONE',  ( 0.0000000000000000000, 0.0000000000000000000, 1.000000000000000000 ) ) ;
#318 = LINE ( 'NONE', #286, #358 ) ;
#319 = ORIENTED_EDGE ( 'NONE', *, *, #275, .F. ) ;
#320 =( NAMED_UNIT ( * ) PLANE_ANGLE_UNIT ( ) SI_UNIT ( $, .RADIAN. ) );
#321 = FILL_AREA_STYLE_COLOUR ( '', #63 ) ;
#322 = LINE ( 'NONE', #140, #88 ) ;
#323 = ORIENTED_EDGE ( 'NONE', *, *, #62, .T. ) ;
#324 = ADVANCED_FACE ( 'NONE', ( #72 ), #194, .T. ) ;
#325 = EDGE_LOOP ( 'NONE', ( #201, #45, #168, #191 ) ) ;
#326 = AXIS2_PLACEMENT_3D ( 'NONE', #248, #93, #129 ) ;
#327 = ORIENTED_EDGE ( 'NONE', *, *, #337, .F. ) ;
#328 = PRESENTATION_STYLE_ASSIGNMENT (( #273 ) ) ;
#329 = CIRCLE ( 'NONE', #267, 1.000000000000000000 ) ;
#330 = ORIENTED_EDGE ( 'NONE', *, *, #31, .F. ) ;
#331 = CARTESIAN_POINT ( 'NONE',  ( 1.000000000000000000, 6.999999999999999100, 0.0000000000000000000 ) ) ;
#332 = AXIS2_PLACEMENT_3D ( 'NONE', #111, #310, #280 ) ;
#333 = CARTESIAN_POINT ( 'NONE',  ( 0.0000000000000000000, 0.0000000000000000000, 0.0000000000000000000 ) ) ;
#334 = EDGE_LOOP ( 'NONE', ( #330, #211, #270, #327 ) ) ;
#335 = ORIENTED_EDGE ( 'NONE', *, *, #307, .F. ) ;
#336 = DIRECTION ( 'NONE',  ( -0.0000000000000000000, -1.000000000000000000, -0.0000000000000000000 ) ) ;
#337 = EDGE_CURVE ( 'NONE', #351, #40, #264, .T. ) ;
#338 = DIRECTION ( 'NONE',  ( 0.0000000000000000000, 0.0000000000000000000, 1.000000000000000000 ) ) ;
#339 = CARTESIAN_POINT ( 'NONE',  ( 0.0000000000000000000, 0.5000000000000030000, 0.0000000000000000000 ) ) ;
#340 = CARTESIAN_POINT ( 'NONE',  ( 0.0000000000000000000, 13.69999999999999900, -0.7458548115672624100 ) ) ;
#341 = ORIENTED_EDGE ( 'NONE', *, *, #75, .F. ) ;
#342 = AXIS2_PLACEMENT_3D ( 'NONE', #33, #137, #229 ) ;
#343 = DIRECTION ( 'NONE',  ( -0.0000000000000000000, -1.000000000000000000, -0.0000000000000000000 ) ) ;
#344 = CYLINDRICAL_SURFACE ( 'NONE', #253, 1.149999999999999900 ) ;
#345 = ORIENTED_EDGE ( 'NONE', *, *, #285, .F. ) ;
#346 = AXIS2_PLACEMENT_3D ( 'NONE', #290, #118, #200 ) ;
#347 =( NAMED_UNIT ( * ) PLANE_ANGLE_UNIT ( ) SI_UNIT ( $, .RADIAN. ) );
#348 = VERTEX_POINT ( 'NONE', #125 ) ;
#349 = AXIS2_PLACEMENT_3D ( 'NONE', #23, #238, #268 ) ;
#350 = VECTOR ( 'NONE', #193, 1000.000000000000000 ) ;
#351 = VERTEX_POINT ( 'NONE', #98 ) ;
#352 = EDGE_CURVE ( 'NONE', #1, #202, #108, .T. ) ;
#353 = FILL_AREA_STYLE_COLOUR ( '', #47 ) ;
#354 = VERTEX_POINT ( 'NONE', #120 ) ;
#355 = AXIS2_PLACEMENT_3D ( 'NONE', #52, #257, #228 ) ;
#356 = AXIS2_PLACEMENT_3D ( 'NONE', #266, #148, #368 ) ;
#357 = DIRECTION ( 'NONE',  ( -0.0000000000000000000, -1.000000000000000000, -0.0000000000000000000 ) ) ;
#358 = VECTOR ( 'NONE', #262, 999.9999999999998900 ) ;
#359 = DIRECTION ( 'NONE',  ( 0.0000000000000000000, 0.0000000000000000000, 1.000000000000000000 ) ) ;
#360 = VERTEX_POINT ( 'NONE', #29 ) ;
#361 = UNCERTAINTY_MEASURE_WITH_UNIT (LENGTH_MEASURE( 1.000000000000000100E-005 ), #294, 'distance_accuracy_value', 'NONE');
#362 = CARTESIAN_POINT ( 'NONE',  ( 0.0000000000000000000, 13.69999999999999900, 0.0000000000000000000 ) ) ;
#363 = CARTESIAN_POINT ( 'NONE',  ( 1.224646799147353200E-016, 0.0000000000000000000, 1.000000000000000000 ) ) ;
#364 = FACE_OUTER_BOUND ( 'NONE', #334, .T. ) ;
#365 = ORIENTED_EDGE ( 'NONE', *, *, #199, .T. ) ;
#366 = CARTESIAN_POINT ( 'NONE',  ( 0.0000000000000000000, 13.00000000000000200, 0.0000000000000000000 ) ) ;
#367 = FACE_OUTER_BOUND ( 'NONE', #58, .T. ) ;
#368 = DIRECTION ( 'NONE',  ( 0.0000000000000000000, 0.0000000000000000000, -1.000000000000000000 ) ) ;
#369 = PRESENTATION_LAYER_ASSIGNMENT (  '', '', ( #288 ) ) ;
#370 = DIRECTION ( 'NONE',  ( -0.0000000000000000000, -1.000000000000000000, -0.0000000000000000000 ) ) ;
#371 =( NAMED_UNIT ( * ) SI_UNIT ( $, .STERADIAN. ) SOLID_ANGLE_UNIT ( ) );
#372 = CIRCLE ( 'NONE', #189, 0.5999999999999999800 ) ;
ENDSEC;
END-ISO-10303-21;
