ISO-10303-21;
HEADER;
FILE_DESCRIPTION (( 'STEP AP214' ),
    '1' );
FILE_NAME ('42751~0.STEP',
    '2017-07-04T09:11:32',
    ( '' ),
    ( '' ),
    'SwSTEP 2.0',
    'SolidWorks 2016',
    '' );
FILE_SCHEMA (( 'AUTOMOTIVE_DESIGN' ));
ENDSEC;

DATA;
#1 = CIRCLE ( 'NONE', #185, 1.576239569296599600 ) ;
#2 = ORIENTED_EDGE ( 'NONE', *, *, #260, .F. ) ;
#3 = ADVANCED_FACE ( 'NONE', ( #6 ), #57, .T. ) ;
#4 = EDGE_CURVE ( 'NONE', #272, #157, #270, .T. ) ;
#5 = ORIENTED_EDGE ( 'NONE', *, *, #360, .F. ) ;
#6 = FACE_OUTER_BOUND ( 'NONE', #32, .T. ) ;
#7 = PLANE ( 'NONE',  #268 ) ;
#8 = CARTESIAN_POINT ( 'NONE',  ( 0.0000000000000000000, 0.0000000000000000000, -2.500000000000000000 ) ) ;
#9 = PRODUCT_DEFINITION ( 'UNKNOWN', '', #200, #248 ) ;
#10 = DIRECTION ( 'NONE',  ( -0.0000000000000000000, -1.000000000000000000, -0.0000000000000000000 ) ) ;
#11 = VECTOR ( 'NONE', #362, 999.9999999999998900 ) ;
#12 = DIRECTION ( 'NONE',  ( -0.0000000000000000000, -1.000000000000000000, -0.0000000000000000000 ) ) ;
#13 = ORIENTED_EDGE ( 'NONE', *, *, #311, .T. ) ;
#14 = UNCERTAINTY_MEASURE_WITH_UNIT (LENGTH_MEASURE( 1.000000000000000100E-005 ), #192, 'distance_accuracy_value', 'NONE');
#15 = EDGE_CURVE ( 'NONE', #267, #99, #202, .T. ) ;
#16 = DIRECTION ( 'NONE',  ( -0.0000000000000000000, -1.000000000000000000, -0.0000000000000000000 ) ) ;
#17 = PRODUCT ( '42751~0', '42751~0', '', ( #252 ) ) ;
#18 = CARTESIAN_POINT ( 'NONE',  ( 1.224646799147353200E-016, 0.5000000000000014400, 1.000000000000000000 ) ) ;
#19 = CARTESIAN_POINT ( 'NONE',  ( 1.930336743228483100E-016, 13.39999999999999900, -1.576239569296599600 ) ) ;
#20 = ORIENTED_EDGE ( 'NONE', *, *, #121, .T. ) ;
#21 = VERTEX_POINT ( 'NONE', #288 ) ;
#22 = CLOSED_SHELL ( 'NONE', ( #144, #291, #59, #233, #27, #112, #137, #263, #138, #230, #317, #3, #28 ) ) ;
#23 = EDGE_CURVE ( 'NONE', #166, #267, #36, .T. ) ;
#24 =( NAMED_UNIT ( * ) PLANE_ANGLE_UNIT ( ) SI_UNIT ( $, .RADIAN. ) );
#25 = FACE_OUTER_BOUND ( 'NONE', #198, .T. ) ;
#26 = ORIENTED_EDGE ( 'NONE', *, *, #191, .F. ) ;
#27 = ADVANCED_FACE ( 'NONE', ( #342 ), #65, .T. ) ;
#28 = ADVANCED_FACE ( 'NONE', ( #116 ), #71, .T. ) ;
#29 = VERTEX_POINT ( 'NONE', #299 ) ;
#30 = VECTOR ( 'NONE', #47, 1000.000000000000000 ) ;
#31 = EDGE_LOOP ( 'NONE', ( #301, #305 ) ) ;
#32 = EDGE_LOOP ( 'NONE', ( #26, #89, #142, #75 ) ) ;
#33 = AXIS2_PLACEMENT_3D ( 'NONE', #324, #12, #178 ) ;
#34 = DIRECTION ( 'NONE',  ( 0.0000000000000000000, -0.0000000000000000000, 1.000000000000000000 ) ) ;
#35 = PLANE ( 'NONE',  #109 ) ;
#36 = LINE ( 'NONE', #264, #258 ) ;
#37 = ORIENTED_EDGE ( 'NONE', *, *, #143, .F. ) ;
#38 = DIRECTION ( 'NONE',  ( 0.0000000000000000000, 0.0000000000000000000, -1.000000000000000000 ) ) ;
#39 = DIRECTION ( 'NONE',  ( 0.0000000000000000000, 0.0000000000000000000, -1.000000000000000000 ) ) ;
#40 =( GEOMETRIC_REPRESENTATION_CONTEXT ( 3 ) GLOBAL_UNCERTAINTY_ASSIGNED_CONTEXT ( ( #140 ) ) GLOBAL_UNIT_ASSIGNED_CONTEXT ( ( #355, #95, #210 ) ) REPRESENTATION_CONTEXT ( 'NONE', 'WORKASPACE' ) );
#41 = DIRECTION ( 'NONE',  ( 1.224646799147353700E-016, 0.0000000000000000000, -1.000000000000000000 ) ) ;
#42 = FACE_OUTER_BOUND ( 'NONE', #315, .T. ) ;
#43 = CARTESIAN_POINT ( 'NONE',  ( 3.061616997868383100E-016, 13.00000000000000200, 2.500000000000000000 ) ) ;
#44 = EDGE_LOOP ( 'NONE', ( #197, #336, #251, #323 ) ) ;
#45 = CARTESIAN_POINT ( 'NONE',  ( 0.0000000000000000000, 0.0000000000000000000, 0.5000000000000004400 ) ) ;
#46 = DIRECTION ( 'NONE',  ( 1.000000000000000000, -0.0000000000000000000, 1.224646799147353200E-016 ) ) ;
#47 = DIRECTION ( 'NONE',  ( -0.0000000000000000000, -1.000000000000000000, -0.0000000000000000000 ) ) ;
#48 = ORIENTED_EDGE ( 'NONE', *, *, #369, .T. ) ;
#49 = ORIENTED_EDGE ( 'NONE', *, *, #208, .F. ) ;
#50 = AXIS2_PLACEMENT_3D ( 'NONE', #226, #55, #348 ) ;
#51 = FILL_AREA_STYLE_COLOUR ( '', #292 ) ;
#52 = DIRECTION ( 'NONE',  ( -0.0000000000000000000, -1.000000000000000000, -0.0000000000000000000 ) ) ;
#53 = EDGE_CURVE ( 'NONE', #166, #29, #229, .T. ) ;
#54 = FACE_OUTER_BOUND ( 'NONE', #179, .T. ) ;
#55 = DIRECTION ( 'NONE',  ( -0.0000000000000000000, -1.000000000000000000, -0.0000000000000000000 ) ) ;
#56 = AXIS2_PLACEMENT_3D ( 'NONE', #19, #46, #41 ) ;
#57 = CONICAL_SURFACE ( 'NONE', #194, 0.5000000000000004400, 0.7853981633974465000 ) ;
#58 = EDGE_LOOP ( 'NONE', ( #128, #48 ) ) ;
#59 = ADVANCED_FACE ( 'NONE', ( #266 ), #123, .T. ) ;
#60 = CARTESIAN_POINT ( 'NONE',  ( 0.0000000000000000000, 0.5000000000000014400, 0.0000000000000000000 ) ) ;
#61 = CYLINDRICAL_SURFACE ( 'NONE', #314, 1.000000000000000000 ) ;
#62 = ORIENTED_EDGE ( 'NONE', *, *, #369, .F. ) ;
#63 = EDGE_CURVE ( 'NONE', #170, #162, #147, .T. ) ;
#64 = DIRECTION ( 'NONE',  ( 0.0000000000000000000, 1.000000000000000000, 0.0000000000000000000 ) ) ;
#65 = CONICAL_SURFACE ( 'NONE', #331, 2.500000000000000000, 0.5235987755983002600 ) ;
#66 = ORIENTED_EDGE ( 'NONE', *, *, #23, .F. ) ;
#67 = CARTESIAN_POINT ( 'NONE',  ( 0.0000000000000000000, 13.39999999999999900, 1.576239569296599600 ) ) ;
#68 = AXIS2_PLACEMENT_3D ( 'NONE', #281, #124, #126 ) ;
#69 = DIRECTION ( 'NONE',  ( 0.0000000000000000000, 0.0000000000000000000, -1.000000000000000000 ) ) ;
#70 = CIRCLE ( 'NONE', #307, 0.5000000000000004400 ) ;
#71 = TOROIDAL_SURFACE ( 'NONE', #205, 1.576239569296599600, 0.5999999999999999800 ) ;
#72 = CARTESIAN_POINT ( 'NONE',  ( 0.0000000000000000000, 13.00000000000000200, -2.500000000000000000 ) ) ;
#73 = CARTESIAN_POINT ( 'NONE',  ( 0.0000000000000000000, 0.0000000000000000000, 0.0000000000000000000 ) ) ;
#74 = FACE_OUTER_BOUND ( 'NONE', #44, .T. ) ;
#75 = ORIENTED_EDGE ( 'NONE', *, *, #241, .F. ) ;
#76 = DIRECTION ( 'NONE',  ( -0.0000000000000000000, -1.000000000000000000, -0.0000000000000000000 ) ) ;
#77 = APPLICATION_CONTEXT ( 'automotive_design' ) ;
#78 = SURFACE_STYLE_USAGE ( .BOTH. , #131 ) ;
#79 = VECTOR ( 'NONE', #127, 999.9999999999998900 ) ;
#80 = ORIENTED_EDGE ( 'NONE', *, *, #254, .T. ) ;
#81 = DIRECTION ( 'NONE',  ( 0.0000000000000000000, 0.0000000000000000000, 1.000000000000000000 ) ) ;
#82 = AXIS2_PLACEMENT_3D ( 'NONE', #216, #302, #155 ) ;
#83 = CARTESIAN_POINT ( 'NONE',  ( 0.0000000000000000000, 0.0000000000000000000, 0.0000000000000000000 ) ) ;
#84 = CARTESIAN_POINT ( 'NONE',  ( 0.0000000000000000000, 13.99999999999999800, 0.0000000000000000000 ) ) ;
#85 = EDGE_CURVE ( 'NONE', #21, #214, #206, .T. ) ;
#86 = ORIENTED_EDGE ( 'NONE', *, *, #203, .F. ) ;
#87 = ORIENTED_EDGE ( 'NONE', *, *, #241, .T. ) ;
#88 = CIRCLE ( 'NONE', #134, 1.576239569296599600 ) ;
#89 = ORIENTED_EDGE ( 'NONE', *, *, #53, .F. ) ;
#90 = ORIENTED_EDGE ( 'NONE', *, *, #174, .F. ) ;
#91 = ORIENTED_EDGE ( 'NONE', *, *, #260, .T. ) ;
#92 = CARTESIAN_POINT ( 'NONE',  ( 0.0000000000000000000, 13.00000000000000200, 0.0000000000000000000 ) ) ;
#93 = CARTESIAN_POINT ( 'NONE',  ( 1.000000000000000000, 6.999999999999999100, 0.0000000000000000000 ) ) ;
#94 = CIRCLE ( 'NONE', #172, 1.000000000000000000 ) ;
#95 =( NAMED_UNIT ( * ) PLANE_ANGLE_UNIT ( ) SI_UNIT ( $, .RADIAN. ) );
#96 = DIRECTION ( 'NONE',  ( 0.0000000000000000000, 0.0000000000000000000, 1.000000000000000000 ) ) ;
#97 = CARTESIAN_POINT ( 'NONE',  ( 0.0000000000000000000, 13.00000000000000200, -2.500000000000000000 ) ) ;
#98 = CARTESIAN_POINT ( 'NONE',  ( 0.0000000000000000000, 0.0000000000000000000, 0.0000000000000000000 ) ) ;
#99 = VERTEX_POINT ( 'NONE', #327 ) ;
#100 = MANIFOLD_SOLID_BREP ( 'Verrundung1', #22 ) ;
#101 = DIRECTION ( 'NONE',  ( 0.0000000000000000000, 0.0000000000000000000, 1.000000000000000000 ) ) ;
#102 = FACE_OUTER_BOUND ( 'NONE', #58, .T. ) ;
#103 = ORIENTED_EDGE ( 'NONE', *, *, #274, .T. ) ;
#104 = AXIS2_PLACEMENT_3D ( 'NONE', #361, #280, #332 ) ;
#105 = DIRECTION ( 'NONE',  ( 0.0000000000000000000, 1.000000000000000000, 0.0000000000000000000 ) ) ;
#106 = DIRECTION ( 'NONE',  ( 0.0000000000000000000, 1.000000000000000000, 0.0000000000000000000 ) ) ;
#107 = DIRECTION ( 'NONE',  ( 1.000000000000000000, 0.0000000000000000000, 0.0000000000000000000 ) ) ;
#108 = FACE_BOUND ( 'NONE', #289, .T. ) ;
#109 = AXIS2_PLACEMENT_3D ( 'NONE', #93, #117, #181 ) ;
#110 = CARTESIAN_POINT ( 'NONE',  ( 0.0000000000000000000, 0.0000000000000000000, 0.0000000000000000000 ) ) ;
#111 = DIRECTION ( 'NONE',  ( 0.0000000000000000000, 1.000000000000000000, 0.0000000000000000000 ) ) ;
#112 = ADVANCED_FACE ( 'NONE', ( #261 ), #7, .T. ) ;
#113 = LINE ( 'NONE', #335, #177 ) ;
#114 = CONICAL_SURFACE ( 'NONE', #161, 2.500000000000000000, 0.5235987755983002600 ) ;
#115 = CARTESIAN_POINT ( 'NONE',  ( 0.0000000000000000000, 0.0000000000000000000, 0.0000000000000000000 ) ) ;
#116 = FACE_OUTER_BOUND ( 'NONE', #136, .T. ) ;
#117 = DIRECTION ( 'NONE',  ( 0.0000000000000000000, -1.000000000000000000, -0.0000000000000000000 ) ) ;
#118 = PRESENTATION_LAYER_ASSIGNMENT (  '', '', ( #365 ) ) ;
#119 = DIRECTION ( 'NONE',  ( 0.0000000000000000000, 0.7071067811865489100, 0.7071067811865462400 ) ) ;
#120 = PRODUCT_DEFINITION_SHAPE ( 'NONE', 'NONE',  #9 ) ;
#121 = EDGE_CURVE ( 'NONE', #170, #333, #358, .T. ) ;
#122 = CIRCLE ( 'NONE', #68, 1.000000000000000000 ) ;
#123 = CYLINDRICAL_SURFACE ( 'NONE', #33, 1.000000000000000000 ) ;
#124 = DIRECTION ( 'NONE',  ( 0.0000000000000000000, 1.000000000000000000, 0.0000000000000000000 ) ) ;
#125 = AXIS2_PLACEMENT_3D ( 'NONE', #115, #10, #69 ) ;
#126 = DIRECTION ( 'NONE',  ( 0.0000000000000000000, 0.0000000000000000000, -1.000000000000000000 ) ) ;
#127 = DIRECTION ( 'NONE',  ( 8.659560562354918100E-017, 0.7071067811865489100, -0.7071067811865462400 ) ) ;
#128 = ORIENTED_EDGE ( 'NONE', *, *, #53, .T. ) ;
#129 = ORIENTED_EDGE ( 'NONE', *, *, #143, .T. ) ;
#130 = DIRECTION ( 'NONE',  ( 0.0000000000000000000, 0.0000000000000000000, -1.000000000000000000 ) ) ;
#131 = SURFACE_SIDE_STYLE ('',( #357 ) ) ;
#132 = DIRECTION ( 'NONE',  ( -0.0000000000000000000, -1.000000000000000000, -0.0000000000000000000 ) ) ;
#133 = VERTEX_POINT ( 'NONE', #269 ) ;
#134 = AXIS2_PLACEMENT_3D ( 'NONE', #196, #106, #222 ) ;
#135 = DIRECTION ( 'NONE',  ( 0.0000000000000000000, 0.0000000000000000000, -1.000000000000000000 ) ) ;
#136 = EDGE_LOOP ( 'NONE', ( #326, #316, #20, #345 ) ) ;
#137 = ADVANCED_FACE ( 'NONE', ( #74 ), #114, .T. ) ;
#138 = ADVANCED_FACE ( 'NONE', ( #350, #108 ), #35, .T. ) ;
#139 = AXIS2_PLACEMENT_3D ( 'NONE', #312, #287, #107 ) ;
#140 = UNCERTAINTY_MEASURE_WITH_UNIT (LENGTH_MEASURE( 1.000000000000000100E-005 ), #355, 'distance_accuracy_value', 'NONE');
#141 = VECTOR ( 'NONE', #160, 1000.000000000000000 ) ;
#142 = ORIENTED_EDGE ( 'NONE', *, *, #23, .T. ) ;
#143 = EDGE_CURVE ( 'NONE', #214, #272, #278, .T. ) ;
#144 = ADVANCED_FACE ( 'NONE', ( #25 ), #368, .T. ) ;
#145 = AXIS2_PLACEMENT_3D ( 'NONE', #276, #156, #101 ) ;
#146 = VECTOR ( 'NONE', #213, 999.9999999999998900 ) ;
#147 = CIRCLE ( 'NONE', #320, 2.095854811567261500 ) ;
#148 = ORIENTED_EDGE ( 'NONE', *, *, #15, .T. ) ;
#149 = DIRECTION ( 'NONE',  ( -0.0000000000000000000, -1.000000000000000000, -0.0000000000000000000 ) ) ;
#150 = FILL_AREA_STYLE_COLOUR ( '', #184 ) ;
#151 = DIRECTION ( 'NONE',  ( 0.0000000000000000000, 1.000000000000000000, 0.0000000000000000000 ) ) ;
#152 = CYLINDRICAL_SURFACE ( 'NONE', #82, 2.500000000000000000 ) ;
#153 = ORIENTED_EDGE ( 'NONE', *, *, #325, .F. ) ;
#154 = AXIS2_PLACEMENT_3D ( 'NONE', #285, #225, #306 ) ;
#155 = DIRECTION ( 'NONE',  ( 0.0000000000000000000, 0.0000000000000000000, -1.000000000000000000 ) ) ;
#156 = DIRECTION ( 'NONE',  ( 0.0000000000000000000, 1.000000000000000000, 0.0000000000000000000 ) ) ;
#157 = VERTEX_POINT ( 'NONE', #303 ) ;
#158 = ORIENTED_EDGE ( 'NONE', *, *, #290, .T. ) ;
#159 = CARTESIAN_POINT ( 'NONE',  ( 0.0000000000000000000, 0.0000000000000000000, 0.0000000000000000000 ) ) ;
#160 = DIRECTION ( 'NONE',  ( -0.0000000000000000000, -1.000000000000000000, -0.0000000000000000000 ) ) ;
#161 = AXIS2_PLACEMENT_3D ( 'NONE', #209, #149, #39 ) ;
#162 = VERTEX_POINT ( 'NONE', #249 ) ;
#163 = PLANE ( 'NONE',  #154 ) ;
#164 =( LENGTH_UNIT ( ) NAMED_UNIT ( * ) SI_UNIT ( .MILLI., .METRE. ) );
#165 =( NAMED_UNIT ( * ) PLANE_ANGLE_UNIT ( ) SI_UNIT ( $, .RADIAN. ) );
#166 = VERTEX_POINT ( 'NONE', #45 ) ;
#167 = VERTEX_POINT ( 'NONE', #211 ) ;
#168 = STYLED_ITEM ( 'NONE', ( #344 ), #100 ) ;
#169 = CYLINDRICAL_SURFACE ( 'NONE', #246, 2.500000000000000000 ) ;
#170 = VERTEX_POINT ( 'NONE', #330 ) ;
#171 = ADVANCED_BREP_SHAPE_REPRESENTATION ( '42751~0', ( #100, #139 ), #238 ) ;
#172 = AXIS2_PLACEMENT_3D ( 'NONE', #337, #132, #255 ) ;
#173 = ORIENTED_EDGE ( 'NONE', *, *, #15, .F. ) ;
#174 = EDGE_CURVE ( 'NONE', #214, #21, #193, .T. ) ;
#175 = FILL_AREA_STYLE ('',( #150 ) ) ;
#176 = DIRECTION ( 'NONE',  ( -0.0000000000000000000, -1.000000000000000000, -0.0000000000000000000 ) ) ;
#177 = VECTOR ( 'NONE', #219, 1000.000000000000000 ) ;
#178 = DIRECTION ( 'NONE',  ( 0.0000000000000000000, 0.0000000000000000000, -1.000000000000000000 ) ) ;
#179 = EDGE_LOOP ( 'NONE', ( #259, #334, #129, #296 ) ) ;
#180 = AXIS2_PLACEMENT_3D ( 'NONE', #83, #364, #81 ) ;
#181 = DIRECTION ( 'NONE',  ( 0.0000000000000000000, 0.0000000000000000000, -1.000000000000000000 ) ) ;
#182 = CARTESIAN_POINT ( 'NONE',  ( 6.123233995736772200E-017, 0.0000000000000000000, -0.5000000000000004400 ) ) ;
#183 = CARTESIAN_POINT ( 'NONE',  ( 0.0000000000000000000, 13.00000000000000200, 0.0000000000000000000 ) ) ;
#184 = COLOUR_RGB ( '',0.7529411764705882200, 0.7529411764705882200, 0.7529411764705882200 ) ;
#185 = AXIS2_PLACEMENT_3D ( 'NONE', #84, #105, #284 ) ;
#186 = CARTESIAN_POINT ( 'NONE',  ( 0.0000000000000000000, 6.999999999999999100, -1.000000000000000000 ) ) ;
#187 = AXIS2_PLACEMENT_3D ( 'NONE', #190, #338, #283 ) ;
#188 = APPLICATION_PROTOCOL_DEFINITION ( 'draft international standard', 'automotive_design', 1998, #340 ) ;
#189 = ORIENTED_EDGE ( 'NONE', *, *, #274, .F. ) ;
#190 = CARTESIAN_POINT ( 'NONE',  ( 0.0000000000000000000, 6.999999999999999100, 0.0000000000000000000 ) ) ;
#191 = EDGE_CURVE ( 'NONE', #29, #99, #265, .T. ) ;
#192 =( LENGTH_UNIT ( ) NAMED_UNIT ( * ) SI_UNIT ( .MILLI., .METRE. ) );
#193 = CIRCLE ( 'NONE', #339, 2.500000000000000000 ) ;
#194 = AXIS2_PLACEMENT_3D ( 'NONE', #110, #111, #343 ) ;
#195 = VECTOR ( 'NONE', #354, 1000.000000000000000 ) ;
#196 = CARTESIAN_POINT ( 'NONE',  ( 0.0000000000000000000, 13.99999999999999800, 0.0000000000000000000 ) ) ;
#197 = ORIENTED_EDGE ( 'NONE', *, *, #254, .F. ) ;
#198 = EDGE_LOOP ( 'NONE', ( #189, #293, #153, #295 ) ) ;
#199 = DIRECTION ( 'NONE',  ( 0.0000000000000000000, 0.0000000000000000000, -1.000000000000000000 ) ) ;
#200 = PRODUCT_DEFINITION_FORMATION_WITH_SPECIFIED_SOURCE ( 'ANY', '', #17, .NOT_KNOWN. ) ;
#201 = CONICAL_SURFACE ( 'NONE', #180, 0.5000000000000004400, 0.7853981633974465000 ) ;
#202 = CIRCLE ( 'NONE', #351, 1.000000000000000000 ) ;
#203 = EDGE_CURVE ( 'NONE', #162, #214, #236, .T. ) ;
#204 = SURFACE_STYLE_USAGE ( .BOTH. , #243 ) ;
#205 = AXIS2_PLACEMENT_3D ( 'NONE', #247, #151, #273 ) ;
#206 = CIRCLE ( 'NONE', #271, 2.500000000000000000 ) ;
#207 = ORIENTED_EDGE ( 'NONE', *, *, #4, .F. ) ;
#208 = EDGE_CURVE ( 'NONE', #218, #99, #223, .T. ) ;
#209 = CARTESIAN_POINT ( 'NONE',  ( 0.0000000000000000000, 13.00000000000000200, 0.0000000000000000000 ) ) ;
#210 =( NAMED_UNIT ( * ) SI_UNIT ( $, .STERADIAN. ) SOLID_ANGLE_UNIT ( ) );
#211 = CARTESIAN_POINT ( 'NONE',  ( 2.248509314845954700E-016, 13.99999999999999800, -1.576239569296599600 ) ) ;
#212 = FACE_OUTER_BOUND ( 'NONE', #237, .T. ) ;
#213 = DIRECTION ( 'NONE',  ( 0.0000000000000000000, -0.8660254037844380400, -0.5000000000000012200 ) ) ;
#214 = VERTEX_POINT ( 'NONE', #72 ) ;
#215 = AXIS2_PLACEMENT_3D ( 'NONE', #67, #297, #352 ) ;
#216 = CARTESIAN_POINT ( 'NONE',  ( 0.0000000000000000000, 0.0000000000000000000, 0.0000000000000000000 ) ) ;
#217 = CIRCLE ( 'NONE', #187, 1.000000000000000000 ) ;
#218 = VERTEX_POINT ( 'NONE', #186 ) ;
#219 = DIRECTION ( 'NONE',  ( -0.0000000000000000000, -1.000000000000000000, -0.0000000000000000000 ) ) ;
#220 = DIRECTION ( 'NONE',  ( -0.0000000000000000000, -1.000000000000000000, -0.0000000000000000000 ) ) ;
#221 = PRODUCT_RELATED_PRODUCT_CATEGORY ( 'part', '', ( #17 ) ) ;
#222 = DIRECTION ( 'NONE',  ( 0.0000000000000000000, 0.0000000000000000000, 1.000000000000000000 ) ) ;
#223 = LINE ( 'NONE', #359, #30 ) ;
#224 =( NAMED_UNIT ( * ) SI_UNIT ( $, .STERADIAN. ) SOLID_ANGLE_UNIT ( ) );
#225 = DIRECTION ( 'NONE',  ( 0.0000000000000000000, -1.000000000000000000, -0.0000000000000000000 ) ) ;
#226 = CARTESIAN_POINT ( 'NONE',  ( 0.0000000000000000000, 7.000000000000000000, 0.0000000000000000000 ) ) ;
#227 = APPLICATION_PROTOCOL_DEFINITION ( 'draft international standard', 'automotive_design', 1998, #77 ) ;
#228 = MECHANICAL_DESIGN_GEOMETRIC_PRESENTATION_REPRESENTATION (  '', ( #365 ), #279 ) ;
#229 = CIRCLE ( 'NONE', #125, 0.5000000000000004400 ) ;
#230 = ADVANCED_FACE ( 'NONE', ( #212 ), #61, .T. ) ;
#231 = EDGE_LOOP ( 'NONE', ( #286, #91, #148, #49 ) ) ;
#232 = AXIS2_PLACEMENT_3D ( 'NONE', #256, #52, #130 ) ;
#233 = ADVANCED_FACE ( 'NONE', ( #349 ), #152, .T. ) ;
#234 = EDGE_CURVE ( 'NONE', #162, #167, #277, .T. ) ;
#235 = DIRECTION ( 'NONE',  ( -0.0000000000000000000, -1.000000000000000000, -0.0000000000000000000 ) ) ;
#236 = LINE ( 'NONE', #97, #146 ) ;
#237 = EDGE_LOOP ( 'NONE', ( #2, #158, #319, #87 ) ) ;
#238 =( GEOMETRIC_REPRESENTATION_CONTEXT ( 3 ) GLOBAL_UNCERTAINTY_ASSIGNED_CONTEXT ( ( #244 ) ) GLOBAL_UNIT_ASSIGNED_CONTEXT ( ( #164, #165, #253 ) ) REPRESENTATION_CONTEXT ( 'NONE', 'WORKASPACE' ) );
#239 = SHAPE_DEFINITION_REPRESENTATION ( #120, #171 ) ;
#240 = EDGE_LOOP ( 'NONE', ( #262, #242 ) ) ;
#241 = EDGE_CURVE ( 'NONE', #99, #267, #122, .T. ) ;
#242 = ORIENTED_EDGE ( 'NONE', *, *, #328, .T. ) ;
#243 = SURFACE_SIDE_STYLE ('',( #370 ) ) ;
#244 = UNCERTAINTY_MEASURE_WITH_UNIT (LENGTH_MEASURE( 1.000000000000000100E-005 ), #164, 'distance_accuracy_value', 'NONE');
#245 = ORIENTED_EDGE ( 'NONE', *, *, #290, .F. ) ;
#246 = AXIS2_PLACEMENT_3D ( 'NONE', #73, #76, #282 ) ;
#247 = CARTESIAN_POINT ( 'NONE',  ( 0.0000000000000000000, 13.39999999999999900, 0.0000000000000000000 ) ) ;
#248 = PRODUCT_DEFINITION_CONTEXT ( 'detailed design', #77, 'design' ) ;
#249 = CARTESIAN_POINT ( 'NONE',  ( 0.0000000000000000000, 13.70000000000000100, -2.095854811567261500 ) ) ;
#250 = DIRECTION ( 'NONE',  ( 0.0000000000000000000, 0.0000000000000000000, -1.000000000000000000 ) ) ;
#251 = ORIENTED_EDGE ( 'NONE', *, *, #203, .T. ) ;
#252 = PRODUCT_CONTEXT ( 'NONE', #340, 'mechanical' ) ;
#253 =( NAMED_UNIT ( * ) SI_UNIT ( $, .STERADIAN. ) SOLID_ANGLE_UNIT ( ) );
#254 = EDGE_CURVE ( 'NONE', #170, #21, #321, .T. ) ;
#255 = DIRECTION ( 'NONE',  ( 0.0000000000000000000, 0.0000000000000000000, -1.000000000000000000 ) ) ;
#256 = CARTESIAN_POINT ( 'NONE',  ( 0.0000000000000000000, 7.000000000000000000, 0.0000000000000000000 ) ) ;
#257 = CIRCLE ( 'NONE', #232, 2.500000000000000000 ) ;
#258 = VECTOR ( 'NONE', #119, 999.9999999999998900 ) ;
#259 = ORIENTED_EDGE ( 'NONE', *, *, #311, .F. ) ;
#260 = EDGE_CURVE ( 'NONE', #133, #267, #113, .T. ) ;
#261 = FACE_OUTER_BOUND ( 'NONE', #31, .T. ) ;
#262 = ORIENTED_EDGE ( 'NONE', *, *, #4, .T. ) ;
#263 = ADVANCED_FACE ( 'NONE', ( #54 ), #169, .T. ) ;
#264 = CARTESIAN_POINT ( 'NONE',  ( 0.0000000000000000000, 0.0000000000000000000, 0.5000000000000004400 ) ) ;
#265 = LINE ( 'NONE', #182, #79 ) ;
#266 = FACE_OUTER_BOUND ( 'NONE', #231, .T. ) ;
#267 = VERTEX_POINT ( 'NONE', #18 ) ;
#268 = AXIS2_PLACEMENT_3D ( 'NONE', #298, #64, #34 ) ;
#269 = CARTESIAN_POINT ( 'NONE',  ( 1.224646799147353200E-016, 6.999999999999999100, 1.000000000000000000 ) ) ;
#270 = CIRCLE ( 'NONE', #50, 2.500000000000000000 ) ;
#271 = AXIS2_PLACEMENT_3D ( 'NONE', #92, #176, #38 ) ;
#272 = VERTEX_POINT ( 'NONE', #300 ) ;
#273 = DIRECTION ( 'NONE',  ( 0.0000000000000000000, 0.0000000000000000000, 1.000000000000000000 ) ) ;
#274 = EDGE_CURVE ( 'NONE', #162, #170, #367, .T. ) ;
#275 = DIRECTION ( 'NONE',  ( -0.0000000000000000000, -1.000000000000000000, -0.0000000000000000000 ) ) ;
#276 = CARTESIAN_POINT ( 'NONE',  ( 0.0000000000000000000, 13.39999999999999900, 0.0000000000000000000 ) ) ;
#277 = CIRCLE ( 'NONE', #56, 0.5999999999999998700 ) ;
#278 = LINE ( 'NONE', #8, #195 ) ;
#279 =( GEOMETRIC_REPRESENTATION_CONTEXT ( 3 ) GLOBAL_UNCERTAINTY_ASSIGNED_CONTEXT ( ( #14 ) ) GLOBAL_UNIT_ASSIGNED_CONTEXT ( ( #192, #24, #224 ) ) REPRESENTATION_CONTEXT ( 'NONE', 'WORKASPACE' ) );
#280 = DIRECTION ( 'NONE',  ( -0.0000000000000000000, -1.000000000000000000, -0.0000000000000000000 ) ) ;
#281 = CARTESIAN_POINT ( 'NONE',  ( 0.0000000000000000000, 0.5000000000000014400, 0.0000000000000000000 ) ) ;
#282 = DIRECTION ( 'NONE',  ( 0.0000000000000000000, 0.0000000000000000000, -1.000000000000000000 ) ) ;
#283 = DIRECTION ( 'NONE',  ( 0.0000000000000000000, 0.0000000000000000000, -1.000000000000000000 ) ) ;
#284 = DIRECTION ( 'NONE',  ( 0.0000000000000000000, 0.0000000000000000000, 1.000000000000000000 ) ) ;
#285 = CARTESIAN_POINT ( 'NONE',  ( 0.0000000000000000000, 0.0000000000000000000, 0.0000000000000000000 ) ) ;
#286 = ORIENTED_EDGE ( 'NONE', *, *, #360, .T. ) ;
#287 = DIRECTION ( 'NONE',  ( 0.0000000000000000000, 0.0000000000000000000, 1.000000000000000000 ) ) ;
#288 = CARTESIAN_POINT ( 'NONE',  ( 3.061616997868383100E-016, 13.00000000000000200, 2.500000000000000000 ) ) ;
#289 = EDGE_LOOP ( 'NONE', ( #5, #245 ) ) ;
#290 = EDGE_CURVE ( 'NONE', #133, #218, #217, .T. ) ;
#291 = ADVANCED_FACE ( 'NONE', ( #42 ), #201, .T. ) ;
#292 = COLOUR_RGB ( '',0.7529411764705882200, 0.7529411764705882200, 0.7529411764705882200 ) ;
#293 = ORIENTED_EDGE ( 'NONE', *, *, #234, .T. ) ;
#294 = CARTESIAN_POINT ( 'NONE',  ( 0.0000000000000000000, 13.70000000000000100, 0.0000000000000000000 ) ) ;
#295 = ORIENTED_EDGE ( 'NONE', *, *, #121, .F. ) ;
#296 = ORIENTED_EDGE ( 'NONE', *, *, #328, .F. ) ;
#297 = DIRECTION ( 'NONE',  ( -1.000000000000000000, 0.0000000000000000000, 0.0000000000000000000 ) ) ;
#298 = CARTESIAN_POINT ( 'NONE',  ( 1.922649730810372900, 13.99999999999999800, 0.0000000000000000000 ) ) ;
#299 = CARTESIAN_POINT ( 'NONE',  ( 9.184850993605152100E-017, 0.0000000000000000000, -0.5000000000000004400 ) ) ;
#300 = CARTESIAN_POINT ( 'NONE',  ( 0.0000000000000000000, 7.000000000000000000, -2.500000000000000000 ) ) ;
#301 = ORIENTED_EDGE ( 'NONE', *, *, #325, .T. ) ;
#302 = DIRECTION ( 'NONE',  ( -0.0000000000000000000, -1.000000000000000000, -0.0000000000000000000 ) ) ;
#303 = CARTESIAN_POINT ( 'NONE',  ( 3.061616997868383100E-016, 7.000000000000000000, 2.500000000000000000 ) ) ;
#304 = DIRECTION ( 'NONE',  ( -0.0000000000000000000, -1.000000000000000000, -0.0000000000000000000 ) ) ;
#305 = ORIENTED_EDGE ( 'NONE', *, *, #366, .T. ) ;
#306 = DIRECTION ( 'NONE',  ( 0.0000000000000000000, 0.0000000000000000000, -1.000000000000000000 ) ) ;
#307 = AXIS2_PLACEMENT_3D ( 'NONE', #159, #220, #135 ) ;
#308 = FILL_AREA_STYLE ('',( #51 ) ) ;
#309 = CARTESIAN_POINT ( 'NONE',  ( 0.0000000000000000000, 13.99999999999999800, 1.576239569296599600 ) ) ;
#310 = ORIENTED_EDGE ( 'NONE', *, *, #174, .T. ) ;
#311 = EDGE_CURVE ( 'NONE', #21, #157, #341, .T. ) ;
#312 = CARTESIAN_POINT ( 'NONE',  ( 0.0000000000000000000, 0.0000000000000000000, 0.0000000000000000000 ) ) ;
#313 = CARTESIAN_POINT ( 'NONE',  ( 3.061616997868383100E-016, 0.0000000000000000000, 2.500000000000000000 ) ) ;
#314 = AXIS2_PLACEMENT_3D ( 'NONE', #98, #16, #250 ) ;
#315 = EDGE_LOOP ( 'NONE', ( #62, #371, #173, #66 ) ) ;
#316 = ORIENTED_EDGE ( 'NONE', *, *, #63, .F. ) ;
#317 = ADVANCED_FACE ( 'NONE', ( #102 ), #163, .T. ) ;
#318 = PRESENTATION_STYLE_ASSIGNMENT (( #78 ) ) ;
#319 = ORIENTED_EDGE ( 'NONE', *, *, #208, .T. ) ;
#320 = AXIS2_PLACEMENT_3D ( 'NONE', #294, #275, #96 ) ;
#321 = LINE ( 'NONE', #43, #11 ) ;
#322 = DIRECTION ( 'NONE',  ( 0.0000000000000000000, 0.0000000000000000000, -1.000000000000000000 ) ) ;
#323 = ORIENTED_EDGE ( 'NONE', *, *, #85, .F. ) ;
#324 = CARTESIAN_POINT ( 'NONE',  ( 0.0000000000000000000, 0.0000000000000000000, 0.0000000000000000000 ) ) ;
#325 = EDGE_CURVE ( 'NONE', #333, #167, #88, .T. ) ;
#326 = ORIENTED_EDGE ( 'NONE', *, *, #234, .F. ) ;
#327 = CARTESIAN_POINT ( 'NONE',  ( 0.0000000000000000000, 0.5000000000000014400, -1.000000000000000000 ) ) ;
#328 = EDGE_CURVE ( 'NONE', #157, #272, #257, .T. ) ;
#329 = DIRECTION ( 'NONE',  ( 0.0000000000000000000, 0.0000000000000000000, -1.000000000000000000 ) ) ;
#330 = CARTESIAN_POINT ( 'NONE',  ( 2.814149442165904400E-016, 13.70000000000000100, 2.095854811567261500 ) ) ;
#331 = AXIS2_PLACEMENT_3D ( 'NONE', #347, #235, #322 ) ;
#332 = DIRECTION ( 'NONE',  ( 0.0000000000000000000, 0.0000000000000000000, 1.000000000000000000 ) ) ;
#333 = VERTEX_POINT ( 'NONE', #309 ) ;
#334 = ORIENTED_EDGE ( 'NONE', *, *, #85, .T. ) ;
#335 = CARTESIAN_POINT ( 'NONE',  ( 1.224646799147353200E-016, 0.0000000000000000000, 1.000000000000000000 ) ) ;
#336 = ORIENTED_EDGE ( 'NONE', *, *, #63, .T. ) ;
#337 = CARTESIAN_POINT ( 'NONE',  ( 0.0000000000000000000, 6.999999999999999100, 0.0000000000000000000 ) ) ;
#338 = DIRECTION ( 'NONE',  ( -0.0000000000000000000, -1.000000000000000000, -0.0000000000000000000 ) ) ;
#339 = AXIS2_PLACEMENT_3D ( 'NONE', #183, #304, #329 ) ;
#340 = APPLICATION_CONTEXT ( 'automotive_design' ) ;
#341 = LINE ( 'NONE', #313, #141 ) ;
#342 = FACE_OUTER_BOUND ( 'NONE', #363, .T. ) ;
#343 = DIRECTION ( 'NONE',  ( 0.0000000000000000000, 0.0000000000000000000, 1.000000000000000000 ) ) ;
#344 = PRESENTATION_STYLE_ASSIGNMENT (( #204 ) ) ;
#345 = ORIENTED_EDGE ( 'NONE', *, *, #366, .F. ) ;
#346 = PRESENTATION_LAYER_ASSIGNMENT (  '', '', ( #168 ) ) ;
#347 = CARTESIAN_POINT ( 'NONE',  ( 0.0000000000000000000, 13.00000000000000200, 0.0000000000000000000 ) ) ;
#348 = DIRECTION ( 'NONE',  ( 0.0000000000000000000, 0.0000000000000000000, -1.000000000000000000 ) ) ;
#349 = FACE_OUTER_BOUND ( 'NONE', #353, .T. ) ;
#350 = FACE_OUTER_BOUND ( 'NONE', #240, .T. ) ;
#351 = AXIS2_PLACEMENT_3D ( 'NONE', #60, #372, #199 ) ;
#352 = DIRECTION ( 'NONE',  ( 0.0000000000000000000, 0.0000000000000000000, 1.000000000000000000 ) ) ;
#353 = EDGE_LOOP ( 'NONE', ( #310, #13, #207, #37 ) ) ;
#354 = DIRECTION ( 'NONE',  ( -0.0000000000000000000, -1.000000000000000000, -0.0000000000000000000 ) ) ;
#355 =( LENGTH_UNIT ( ) NAMED_UNIT ( * ) SI_UNIT ( .MILLI., .METRE. ) );
#356 = MECHANICAL_DESIGN_GEOMETRIC_PRESENTATION_REPRESENTATION (  '', ( #168 ), #40 ) ;
#357 = SURFACE_STYLE_FILL_AREA ( #308 ) ;
#358 = CIRCLE ( 'NONE', #215, 0.5999999999999998700 ) ;
#359 = CARTESIAN_POINT ( 'NONE',  ( 0.0000000000000000000, 0.0000000000000000000, -1.000000000000000000 ) ) ;
#360 = EDGE_CURVE ( 'NONE', #218, #133, #94, .T. ) ;
#361 = CARTESIAN_POINT ( 'NONE',  ( 0.0000000000000000000, 13.70000000000000100, 0.0000000000000000000 ) ) ;
#362 = DIRECTION ( 'NONE',  ( 6.123233995736782100E-017, -0.8660254037844380400, 0.5000000000000012200 ) ) ;
#363 = EDGE_LOOP ( 'NONE', ( #103, #80, #90, #86 ) ) ;
#364 = DIRECTION ( 'NONE',  ( 0.0000000000000000000, 1.000000000000000000, 0.0000000000000000000 ) ) ;
#365 = STYLED_ITEM ( 'NONE', ( #318 ), #171 ) ;
#366 = EDGE_CURVE ( 'NONE', #167, #333, #1, .T. ) ;
#367 = CIRCLE ( 'NONE', #104, 2.095854811567261500 ) ;
#368 = TOROIDAL_SURFACE ( 'NONE', #145, 1.576239569296599600, 0.5999999999999999800 ) ;
#369 = EDGE_CURVE ( 'NONE', #29, #166, #70, .T. ) ;
#370 = SURFACE_STYLE_FILL_AREA ( #175 ) ;
#371 = ORIENTED_EDGE ( 'NONE', *, *, #191, .T. ) ;
#372 = DIRECTION ( 'NONE',  ( 0.0000000000000000000, 1.000000000000000000, 0.0000000000000000000 ) ) ;
ENDSEC;
END-ISO-10303-21;
