ISO-10303-21;
HEADER;
FILE_DESCRIPTION (( 'STEP AP214' ),
    '1' );
FILE_NAME ('43790~0.STEP',
    '2017-07-04T09:06:35',
    ( '' ),
    ( '' ),
    'SwSTEP 2.0',
    'SolidWorks 2016',
    '' );
FILE_SCHEMA (( 'AUTOMOTIVE_DESIGN' ));
ENDSEC;

DATA;
#1 = DIRECTION ( 'NONE',  ( -0.0000000000000000000, -1.000000000000000000, -0.0000000000000000000 ) ) ;
#2 = MANIFOLD_SOLID_BREP ( 'Verrundung1', #313 ) ;
#3 = DIRECTION ( 'NONE',  ( -0.0000000000000000000, -1.000000000000000000, -0.0000000000000000000 ) ) ;
#4 = DIRECTION ( 'NONE',  ( -0.0000000000000000000, -1.000000000000000000, -0.0000000000000000000 ) ) ;
#5 = CARTESIAN_POINT ( 'NONE',  ( 0.0000000000000000000, 13.99999999999999800, 0.0000000000000000000 ) ) ;
#6 = CIRCLE ( 'NONE', #129, 0.6000000000000000900 ) ;
#7 = AXIS2_PLACEMENT_3D ( 'NONE', #364, #189, #279 ) ;
#8 = PRODUCT_DEFINITION_SHAPE ( 'NONE', 'NONE',  #210 ) ;
#9 = LINE ( 'NONE', #89, #88 ) ;
#10 = CARTESIAN_POINT ( 'NONE',  ( 1.224646799147353200E-016, 0.0000000000000000000, 1.000000000000000000 ) ) ;
#11 = ADVANCED_FACE ( 'NONE', ( #165 ), #28, .T. ) ;
#12 = AXIS2_PLACEMENT_3D ( 'NONE', #57, #166, #29 ) ;
#13 = EDGE_CURVE ( 'NONE', #274, #305, #95, .T. ) ;
#14 = AXIS2_PLACEMENT_3D ( 'NONE', #106, #85, #132 ) ;
#15 = ADVANCED_FACE ( 'NONE', ( #163 ), #191, .T. ) ;
#16 = SURFACE_STYLE_FILL_AREA ( #159 ) ;
#17 = CYLINDRICAL_SURFACE ( 'NONE', #117, 2.100000000000000100 ) ;
#18 = EDGE_CURVE ( 'NONE', #325, #239, #263, .T. ) ;
#19 = ORIENTED_EDGE ( 'NONE', *, *, #174, .F. ) ;
#20 = VERTEX_POINT ( 'NONE', #103 ) ;
#21 = FILL_AREA_STYLE_COLOUR ( '', #61 ) ;
#22 = VECTOR ( 'NONE', #200, 999.9999999999998900 ) ;
#23 = DIRECTION ( 'NONE',  ( 0.0000000000000000000, -1.000000000000000000, -0.0000000000000000000 ) ) ;
#24 = FACE_OUTER_BOUND ( 'NONE', #195, .T. ) ;
#25 = STYLED_ITEM ( 'NONE', ( #244 ), #2 ) ;
#26 = CARTESIAN_POINT ( 'NONE',  ( 0.0000000000000000000, 0.0000000000000000000, 0.0000000000000000000 ) ) ;
#27 = DIRECTION ( 'NONE',  ( -0.0000000000000000000, -1.000000000000000000, -0.0000000000000000000 ) ) ;
#28 = CONICAL_SURFACE ( 'NONE', #153, 2.100000000000000100, 0.5235987755983002600 ) ;
#29 = DIRECTION ( 'NONE',  ( 0.0000000000000000000, 0.0000000000000000000, -1.000000000000000000 ) ) ;
#30 = CARTESIAN_POINT ( 'NONE',  ( 0.0000000000000000000, 0.0000000000000000000, 0.0000000000000000000 ) ) ;
#31 = EDGE_LOOP ( 'NONE', ( #292, #284, #206, #105 ) ) ;
#32 = DIRECTION ( 'NONE',  ( 0.0000000000000000000, 0.0000000000000000000, 1.000000000000000000 ) ) ;
#33 = LINE ( 'NONE', #217, #278 ) ;
#34 = AXIS2_PLACEMENT_3D ( 'NONE', #52, #220, #250 ) ;
#35 = VECTOR ( 'NONE', #111, 1000.000000000000100 ) ;
#36 = CARTESIAN_POINT ( 'NONE',  ( 2.324290722506963200E-016, 13.69999999999999900, 1.695854811567261800 ) ) ;
#37 = EDGE_CURVE ( 'NONE', #236, #274, #184, .T. ) ;
#38 = CARTESIAN_POINT ( 'NONE',  ( 0.0000000000000000000, 0.5000000000000030000, 0.0000000000000000000 ) ) ;
#39 =( NAMED_UNIT ( * ) SI_UNIT ( $, .STERADIAN. ) SOLID_ANGLE_UNIT ( ) );
#40 = ADVANCED_FACE ( 'NONE', ( #339, #183 ), #304, .T. ) ;
#41 = AXIS2_PLACEMENT_3D ( 'NONE', #202, #73, #270 ) ;
#42 =( NAMED_UNIT ( * ) PLANE_ANGLE_UNIT ( ) SI_UNIT ( $, .RADIAN. ) );
#43 = ORIENTED_EDGE ( 'NONE', *, *, #359, .T. ) ;
#44 = VECTOR ( 'NONE', #312, 1000.000000000000000 ) ;
#45 = EDGE_LOOP ( 'NONE', ( #335, #169, #365, #188 ) ) ;
#46 = ADVANCED_FACE ( 'NONE', ( #141 ), #298, .T. ) ;
#47 = EDGE_LOOP ( 'NONE', ( #224, #66 ) ) ;
#48 = CARTESIAN_POINT ( 'NONE',  ( 0.0000000000000000000, 0.0000000000000000000, 0.0000000000000000000 ) ) ;
#49 = EDGE_CURVE ( 'NONE', #354, #305, #118, .T. ) ;
#50 = DIRECTION ( 'NONE',  ( 0.0000000000000000000, 0.7071067811865474600, 0.7071067811865474600 ) ) ;
#51 =( GEOMETRIC_REPRESENTATION_CONTEXT ( 3 ) GLOBAL_UNCERTAINTY_ASSIGNED_CONTEXT ( ( #107 ) ) GLOBAL_UNIT_ASSIGNED_CONTEXT ( ( #294, #241, #352 ) ) REPRESENTATION_CONTEXT ( 'NONE', 'WORKASPACE' ) );
#52 = CARTESIAN_POINT ( 'NONE',  ( 0.0000000000000000000, 0.5000000000000030000, 0.0000000000000000000 ) ) ;
#53 = CYLINDRICAL_SURFACE ( 'NONE', #324, 1.000000000000000000 ) ;
#54 = CONICAL_SURFACE ( 'NONE', #7, 0.4999999999999970000, 0.7853981633974482800 ) ;
#55 = CARTESIAN_POINT ( 'NONE',  ( 0.0000000000000000000, 13.00000000000000200, 0.0000000000000000000 ) ) ;
#56 = ORIENTED_EDGE ( 'NONE', *, *, #49, .T. ) ;
#57 = CARTESIAN_POINT ( 'NONE',  ( 0.0000000000000000000, 7.000000000000000000, 0.0000000000000000000 ) ) ;
#58 = PRODUCT_DEFINITION_CONTEXT ( 'detailed design', #148, 'design' ) ;
#59 = CARTESIAN_POINT ( 'NONE',  ( 9.184850993605129900E-017, 0.0000000000000000000, -0.4999999999999970000 ) ) ;
#60 = EDGE_CURVE ( 'NONE', #325, #20, #33, .T. ) ;
#61 = COLOUR_RGB ( '',0.7529411764705882200, 0.7529411764705882200, 0.7529411764705882200 ) ;
#62 = CARTESIAN_POINT ( 'NONE',  ( 2.571758278209442000E-016, 0.0000000000000000000, 2.100000000000000100 ) ) ;
#63 = PRODUCT ( '43790~0', '43790~0', '', ( #209 ) ) ;
#64 = DIRECTION ( 'NONE',  ( 0.0000000000000000000, 0.0000000000000000000, 1.000000000000000000 ) ) ;
#65 = ORIENTED_EDGE ( 'NONE', *, *, #112, .F. ) ;
#66 = ORIENTED_EDGE ( 'NONE', *, *, #178, .F. ) ;
#67 = DIRECTION ( 'NONE',  ( -0.0000000000000000000, -1.000000000000000000, -0.0000000000000000000 ) ) ;
#68 = ORIENTED_EDGE ( 'NONE', *, *, #181, .F. ) ;
#69 = CARTESIAN_POINT ( 'NONE',  ( 0.0000000000000000000, 13.69999999999999900, 0.0000000000000000000 ) ) ;
#70 = ORIENTED_EDGE ( 'NONE', *, *, #37, .F. ) ;
#71 = EDGE_LOOP ( 'NONE', ( #212, #333 ) ) ;
#72 = EDGE_CURVE ( 'NONE', #20, #329, #363, .T. ) ;
#73 = DIRECTION ( 'NONE',  ( 0.0000000000000000000, 0.0000000000000000000, 1.000000000000000000 ) ) ;
#74 = ADVANCED_FACE ( 'NONE', ( #156 ), #54, .T. ) ;
#75 = CIRCLE ( 'NONE', #164, 1.695854811567261800 ) ;
#76 = ORIENTED_EDGE ( 'NONE', *, *, #13, .T. ) ;
#77 = AXIS2_PLACEMENT_3D ( 'NONE', #30, #4, #138 ) ;
#78 = VERTEX_POINT ( 'NONE', #131 ) ;
#79 = ORIENTED_EDGE ( 'NONE', *, *, #18, .T. ) ;
#80 = ADVANCED_BREP_SHAPE_REPRESENTATION ( '43790~0', ( #2, #41 ), #266 ) ;
#81 = DIRECTION ( 'NONE',  ( -0.0000000000000000000, -1.000000000000000000, -0.0000000000000000000 ) ) ;
#82 = DIRECTION ( 'NONE',  ( -0.0000000000000000000, -1.000000000000000000, -0.0000000000000000000 ) ) ;
#83 = AXIS2_PLACEMENT_3D ( 'NONE', #226, #109, #87 ) ;
#84 = DIRECTION ( 'NONE',  ( 0.0000000000000000000, 0.0000000000000000000, -1.000000000000000000 ) ) ;
#85 = DIRECTION ( 'NONE',  ( 0.0000000000000000000, -1.000000000000000000, -0.0000000000000000000 ) ) ;
#86 = UNCERTAINTY_MEASURE_WITH_UNIT (LENGTH_MEASURE( 1.000000000000000100E-005 ), #139, 'distance_accuracy_value', 'NONE');
#87 = DIRECTION ( 'NONE',  ( 1.224646799147352700E-016, 0.0000000000000000000, -1.000000000000000000 ) ) ;
#88 = VECTOR ( 'NONE', #3, 1000.000000000000000 ) ;
#89 = CARTESIAN_POINT ( 'NONE',  ( 0.0000000000000000000, 0.0000000000000000000, -1.000000000000000000 ) ) ;
#90 = DIRECTION ( 'NONE',  ( 0.0000000000000000000, 0.0000000000000000000, -1.000000000000000000 ) ) ;
#91 = EDGE_CURVE ( 'NONE', #268, #78, #75, .T. ) ;
#92 = ORIENTED_EDGE ( 'NONE', *, *, #13, .F. ) ;
#93 = CARTESIAN_POINT ( 'NONE',  ( 0.0000000000000000000, 13.00000000000000200, -2.100000000000000100 ) ) ;
#94 = DIRECTION ( 'NONE',  ( 0.0000000000000000000, 1.000000000000000000, 0.0000000000000000000 ) ) ;
#95 = LINE ( 'NONE', #252, #301 ) ;
#96 = FACE_OUTER_BOUND ( 'NONE', #272, .T. ) ;
#97 = DIRECTION ( 'NONE',  ( 0.0000000000000000000, -0.0000000000000000000, 1.000000000000000000 ) ) ;
#98 = ORIENTED_EDGE ( 'NONE', *, *, #72, .F. ) ;
#99 = DIRECTION ( 'NONE',  ( 0.0000000000000000000, 0.0000000000000000000, 1.000000000000000000 ) ) ;
#100 = ADVANCED_FACE ( 'NONE', ( #287 ), #211, .T. ) ;
#101 = CIRCLE ( 'NONE', #357, 1.000000000000000000 ) ;
#102 = AXIS2_PLACEMENT_3D ( 'NONE', #225, #194, #90 ) ;
#103 = CARTESIAN_POINT ( 'NONE',  ( 1.224646799147353200E-016, 0.5000000000000030000, 1.000000000000000000 ) ) ;
#104 = DIRECTION ( 'NONE',  ( -0.0000000000000000000, -1.000000000000000000, -0.0000000000000000000 ) ) ;
#105 = ORIENTED_EDGE ( 'NONE', *, *, #262, .F. ) ;
#106 = CARTESIAN_POINT ( 'NONE',  ( 0.0000000000000000000, 0.0000000000000000000, 0.0000000000000000000 ) ) ;
#107 = UNCERTAINTY_MEASURE_WITH_UNIT (LENGTH_MEASURE( 1.000000000000000100E-005 ), #294, 'distance_accuracy_value', 'NONE');
#108 = DIRECTION ( 'NONE',  ( 0.0000000000000000000, 0.0000000000000000000, -1.000000000000000000 ) ) ;
#109 = DIRECTION ( 'NONE',  ( 1.000000000000000000, -0.0000000000000000000, 1.224646799147353200E-016 ) ) ;
#110 = EDGE_LOOP ( 'NONE', ( #196, #120, #326, #343 ) ) ;
#111 = DIRECTION ( 'NONE',  ( 8.659560562354932900E-017, 0.7071067811865474600, -0.7071067811865474600 ) ) ;
#112 = EDGE_CURVE ( 'NONE', #239, #329, #271, .T. ) ;
#113 = CONICAL_SURFACE ( 'NONE', #232, 2.100000000000000100, 0.5235987755983002600 ) ;
#114 = ORIENTED_EDGE ( 'NONE', *, *, #262, .T. ) ;
#115 = CARTESIAN_POINT ( 'NONE',  ( 0.0000000000000000000, 13.99999999999999800, 1.176239569296599700 ) ) ;
#116 = CARTESIAN_POINT ( 'NONE',  ( 0.0000000000000000000, 7.000000000000000000, -2.100000000000000100 ) ) ;
#117 = AXIS2_PLACEMENT_3D ( 'NONE', #192, #369, #193 ) ;
#118 = CIRCLE ( 'NONE', #258, 2.100000000000000100 ) ;
#119 = DIRECTION ( 'NONE',  ( 0.0000000000000000000, 0.0000000000000000000, -1.000000000000000000 ) ) ;
#120 = ORIENTED_EDGE ( 'NONE', *, *, #178, .T. ) ;
#121 = CARTESIAN_POINT ( 'NONE',  ( 0.0000000000000000000, 13.00000000000000200, -2.100000000000000100 ) ) ;
#122 = PLANE ( 'NONE',  #185 ) ;
#123 =( GEOMETRIC_REPRESENTATION_CONTEXT ( 3 ) GLOBAL_UNCERTAINTY_ASSIGNED_CONTEXT ( ( #299 ) ) GLOBAL_UNIT_ASSIGNED_CONTEXT ( ( #338, #221, #366 ) ) REPRESENTATION_CONTEXT ( 'NONE', 'WORKASPACE' ) );
#124 = ORIENTED_EDGE ( 'NONE', *, *, #60, .T. ) ;
#125 = DIRECTION ( 'NONE',  ( 0.0000000000000000000, 0.0000000000000000000, -1.000000000000000000 ) ) ;
#126 = PRODUCT_RELATED_PRODUCT_CATEGORY ( 'part', '', ( #63 ) ) ;
#127 = FACE_OUTER_BOUND ( 'NONE', #302, .T. ) ;
#128 = EDGE_LOOP ( 'NONE', ( #356, #199, #130, #322 ) ) ;
#129 = AXIS2_PLACEMENT_3D ( 'NONE', #144, #320, #99 ) ;
#130 = ORIENTED_EDGE ( 'NONE', *, *, #344, .T. ) ;
#131 = CARTESIAN_POINT ( 'NONE',  ( 0.0000000000000000000, 13.69999999999999900, -1.695854811567261800 ) ) ;
#132 = DIRECTION ( 'NONE',  ( 0.0000000000000000000, 0.0000000000000000000, -1.000000000000000000 ) ) ;
#133 = AXIS2_PLACEMENT_3D ( 'NONE', #255, #170, #197 ) ;
#134 = DIRECTION ( 'NONE',  ( 0.0000000000000000000, 1.000000000000000000, 0.0000000000000000000 ) ) ;
#135 = DIRECTION ( 'NONE',  ( 0.0000000000000000000, 0.0000000000000000000, 1.000000000000000000 ) ) ;
#136 = ORIENTED_EDGE ( 'NONE', *, *, #60, .F. ) ;
#137 = CARTESIAN_POINT ( 'NONE',  ( 6.123233995736727800E-017, 0.0000000000000000000, -0.4999999999999970000 ) ) ;
#138 = DIRECTION ( 'NONE',  ( 0.0000000000000000000, 0.0000000000000000000, -1.000000000000000000 ) ) ;
#139 =( LENGTH_UNIT ( ) NAMED_UNIT ( * ) SI_UNIT ( .MILLI., .METRE. ) );
#140 = VERTEX_POINT ( 'NONE', #259 ) ;
#141 = FACE_OUTER_BOUND ( 'NONE', #110, .T. ) ;
#142 = ORIENTED_EDGE ( 'NONE', *, *, #198, .F. ) ;
#143 = DIRECTION ( 'NONE',  ( 0.0000000000000000000, 1.000000000000000000, 0.0000000000000000000 ) ) ;
#144 = CARTESIAN_POINT ( 'NONE',  ( 0.0000000000000000000, 13.39999999999999900, 1.176239569296599700 ) ) ;
#145 = DIRECTION ( 'NONE',  ( 0.0000000000000000000, 1.000000000000000000, 0.0000000000000000000 ) ) ;
#146 = VECTOR ( 'NONE', #281, 999.9999999999998900 ) ;
#147 = SHAPE_DEFINITION_REPRESENTATION ( #8, #80 ) ;
#148 = APPLICATION_CONTEXT ( 'automotive_design' ) ;
#149 = ADVANCED_FACE ( 'NONE', ( #127 ), #17, .T. ) ;
#150 = ORIENTED_EDGE ( 'NONE', *, *, #112, .T. ) ;
#151 = FILL_AREA_STYLE ('',( #346 ) ) ;
#152 = APPLICATION_CONTEXT ( 'automotive_design' ) ;
#153 = AXIS2_PLACEMENT_3D ( 'NONE', #55, #27, #108 ) ;
#154 = ORIENTED_EDGE ( 'NONE', *, *, #91, .T. ) ;
#155 = EDGE_CURVE ( 'NONE', #268, #236, #201, .T. ) ;
#156 = FACE_OUTER_BOUND ( 'NONE', #318, .T. ) ;
#157 = EDGE_CURVE ( 'NONE', #323, #329, #9, .T. ) ;
#158 = CARTESIAN_POINT ( 'NONE',  ( 0.0000000000000000000, 13.00000000000000200, 0.0000000000000000000 ) ) ;
#159 = FILL_AREA_STYLE ('',( #21 ) ) ;
#160 = EDGE_CURVE ( 'NONE', #78, #345, #237, .T. ) ;
#161 = LINE ( 'NONE', #10, #219 ) ;
#162 = CARTESIAN_POINT ( 'NONE',  ( 0.0000000000000000000, 0.0000000000000000000, 0.0000000000000000000 ) ) ;
#163 = FACE_OUTER_BOUND ( 'NONE', #358, .T. ) ;
#164 = AXIS2_PLACEMENT_3D ( 'NONE', #341, #316, #257 ) ;
#165 = FACE_OUTER_BOUND ( 'NONE', #31, .T. ) ;
#166 = DIRECTION ( 'NONE',  ( -0.0000000000000000000, -1.000000000000000000, -0.0000000000000000000 ) ) ;
#167 = EDGE_LOOP ( 'NONE', ( #314, #154, #114, #70 ) ) ;
#168 = CONICAL_SURFACE ( 'NONE', #133, 0.4999999999999970000, 0.7853981633974482800 ) ;
#169 = ORIENTED_EDGE ( 'NONE', *, *, #342, .T. ) ;
#170 = DIRECTION ( 'NONE',  ( 0.0000000000000000000, 1.000000000000000000, 0.0000000000000000000 ) ) ;
#171 = MECHANICAL_DESIGN_GEOMETRIC_PRESENTATION_REPRESENTATION (  '', ( #242 ), #51 ) ;
#172 = CARTESIAN_POINT ( 'NONE',  ( 0.0000000000000000000, 6.999999999999999100, 0.0000000000000000000 ) ) ;
#173 = AXIS2_PLACEMENT_3D ( 'NONE', #311, #134, #222 ) ;
#174 = EDGE_CURVE ( 'NONE', #236, #354, #371, .T. ) ;
#175 = CARTESIAN_POINT ( 'NONE',  ( 0.0000000000000000000, 0.5000000000000030000, -1.000000000000000000 ) ) ;
#176 = DIRECTION ( 'NONE',  ( 0.0000000000000000000, 1.000000000000000000, 0.0000000000000000000 ) ) ;
#177 = ADVANCED_FACE ( 'NONE', ( #96 ), #214, .T. ) ;
#178 = EDGE_CURVE ( 'NONE', #140, #323, #260, .T. ) ;
#179 = ORIENTED_EDGE ( 'NONE', *, *, #303, .F. ) ;
#180 = CIRCLE ( 'NONE', #331, 1.176239569296599700 ) ;
#181 = EDGE_CURVE ( 'NONE', #239, #325, #319, .T. ) ;
#182 = APPLICATION_PROTOCOL_DEFINITION ( 'draft international standard', 'automotive_design', 1998, #148 ) ;
#183 = FACE_BOUND ( 'NONE', #47, .T. ) ;
#184 = CIRCLE ( 'NONE', #289, 2.100000000000000100 ) ;
#185 = AXIS2_PLACEMENT_3D ( 'NONE', #205, #176, #97 ) ;
#186 = ADVANCED_FACE ( 'NONE', ( #216 ), #168, .T. ) ;
#187 = ORIENTED_EDGE ( 'NONE', *, *, #160, .T. ) ;
#188 = ORIENTED_EDGE ( 'NONE', *, *, #157, .F. ) ;
#189 = DIRECTION ( 'NONE',  ( 0.0000000000000000000, 1.000000000000000000, 0.0000000000000000000 ) ) ;
#190 = AXIS2_PLACEMENT_3D ( 'NONE', #334, #370, #135 ) ;
#191 = PLANE ( 'NONE',  #14 ) ;
#192 = CARTESIAN_POINT ( 'NONE',  ( 0.0000000000000000000, 0.0000000000000000000, 0.0000000000000000000 ) ) ;
#193 = DIRECTION ( 'NONE',  ( 0.0000000000000000000, 0.0000000000000000000, -1.000000000000000000 ) ) ;
#194 = DIRECTION ( 'NONE',  ( -0.0000000000000000000, -1.000000000000000000, -0.0000000000000000000 ) ) ;
#195 = EDGE_LOOP ( 'NONE', ( #253, #187, #179, #308 ) ) ;
#196 = ORIENTED_EDGE ( 'NONE', *, *, #342, .F. ) ;
#197 = DIRECTION ( 'NONE',  ( 0.0000000000000000000, 0.0000000000000000000, 1.000000000000000000 ) ) ;
#198 = EDGE_CURVE ( 'NONE', #305, #354, #283, .T. ) ;
#199 = ORIENTED_EDGE ( 'NONE', *, *, #91, .F. ) ;
#200 = DIRECTION ( 'NONE',  ( 0.0000000000000000000, -0.8660254037844380400, -0.5000000000000012200 ) ) ;
#201 = LINE ( 'NONE', #285, #146 ) ;
#202 = CARTESIAN_POINT ( 'NONE',  ( 0.0000000000000000000, 0.0000000000000000000, 0.0000000000000000000 ) ) ;
#203 = DIRECTION ( 'NONE',  ( -0.0000000000000000000, -1.000000000000000000, -0.0000000000000000000 ) ) ;
#204 = AXIS2_PLACEMENT_3D ( 'NONE', #233, #67, #125 ) ;
#205 = CARTESIAN_POINT ( 'NONE',  ( 1.522649730810373200, 13.99999999999999800, 0.0000000000000000000 ) ) ;
#206 = ORIENTED_EDGE ( 'NONE', *, *, #359, .F. ) ;
#207 = EDGE_CURVE ( 'NONE', #345, #368, #351, .T. ) ;
#208 = SURFACE_SIDE_STYLE ('',( #247 ) ) ;
#209 = PRODUCT_CONTEXT ( 'NONE', #152, 'mechanical' ) ;
#210 = PRODUCT_DEFINITION ( 'UNKNOWN', '', #254, #58 ) ;
#211 = TOROIDAL_SURFACE ( 'NONE', #190, 1.176239569296599700, 0.5999999999999999800 ) ;
#212 = ORIENTED_EDGE ( 'NONE', *, *, #303, .T. ) ;
#213 = AXIS2_PLACEMENT_3D ( 'NONE', #69, #203, #235 ) ;
#214 = CYLINDRICAL_SURFACE ( 'NONE', #223, 2.100000000000000100 ) ;
#215 = DIRECTION ( 'NONE',  ( -0.0000000000000000000, -1.000000000000000000, -0.0000000000000000000 ) ) ;
#216 = FACE_OUTER_BOUND ( 'NONE', #248, .T. ) ;
#217 = CARTESIAN_POINT ( 'NONE',  ( 0.0000000000000000000, 0.0000000000000000000, 0.4999999999999970000 ) ) ;
#218 = ORIENTED_EDGE ( 'NONE', *, *, #49, .F. ) ;
#219 = VECTOR ( 'NONE', #286, 1000.000000000000000 ) ;
#220 = DIRECTION ( 'NONE',  ( 0.0000000000000000000, 1.000000000000000000, 0.0000000000000000000 ) ) ;
#221 =( NAMED_UNIT ( * ) PLANE_ANGLE_UNIT ( ) SI_UNIT ( $, .RADIAN. ) );
#222 = DIRECTION ( 'NONE',  ( 0.0000000000000000000, 0.0000000000000000000, 1.000000000000000000 ) ) ;
#223 = AXIS2_PLACEMENT_3D ( 'NONE', #162, #1, #227 ) ;
#224 = ORIENTED_EDGE ( 'NONE', *, *, #327, .F. ) ;
#225 = CARTESIAN_POINT ( 'NONE',  ( 0.0000000000000000000, 6.999999999999999100, 0.0000000000000000000 ) ) ;
#226 = CARTESIAN_POINT ( 'NONE',  ( 1.440478023569542000E-016, 13.39999999999999900, -1.176239569296599700 ) ) ;
#227 = DIRECTION ( 'NONE',  ( 0.0000000000000000000, 0.0000000000000000000, -1.000000000000000000 ) ) ;
#228 = COLOUR_RGB ( '',0.7529411764705882200, 0.7529411764705882200, 0.7529411764705882200 ) ;
#229 = CIRCLE ( 'NONE', #213, 1.695854811567261800 ) ;
#230 = CARTESIAN_POINT ( 'NONE',  ( 0.0000000000000000000, 6.999999999999999100, -1.000000000000000000 ) ) ;
#231 = CARTESIAN_POINT ( 'NONE',  ( 2.571758278209442000E-016, 7.000000000000000000, 2.100000000000000100 ) ) ;
#232 = AXIS2_PLACEMENT_3D ( 'NONE', #291, #349, #264 ) ;
#233 = CARTESIAN_POINT ( 'NONE',  ( 0.0000000000000000000, 13.00000000000000200, 0.0000000000000000000 ) ) ;
#234 = EDGE_CURVE ( 'NONE', #78, #268, #229, .T. ) ;
#235 = DIRECTION ( 'NONE',  ( 0.0000000000000000000, 0.0000000000000000000, 1.000000000000000000 ) ) ;
#236 = VERTEX_POINT ( 'NONE', #261 ) ;
#237 = CIRCLE ( 'NONE', #83, 0.6000000000000000900 ) ;
#238 = DIRECTION ( 'NONE',  ( 0.0000000000000000000, 0.0000000000000000000, -1.000000000000000000 ) ) ;
#239 = VERTEX_POINT ( 'NONE', #59 ) ;
#240 = FACE_OUTER_BOUND ( 'NONE', #45, .T. ) ;
#241 =( NAMED_UNIT ( * ) PLANE_ANGLE_UNIT ( ) SI_UNIT ( $, .RADIAN. ) );
#242 = STYLED_ITEM ( 'NONE', ( #362 ), #80 ) ;
#243 = ADVANCED_FACE ( 'NONE', ( #372 ), #113, .T. ) ;
#244 = PRESENTATION_STYLE_ASSIGNMENT (( #360 ) ) ;
#245 = ORIENTED_EDGE ( 'NONE', *, *, #181, .T. ) ;
#246 = SURFACE_SIDE_STYLE ('',( #16 ) ) ;
#247 = SURFACE_STYLE_FILL_AREA ( #151 ) ;
#248 = EDGE_LOOP ( 'NONE', ( #68, #150, #98, #136 ) ) ;
#249 = DIRECTION ( 'NONE',  ( -0.0000000000000000000, -1.000000000000000000, -0.0000000000000000000 ) ) ;
#250 = DIRECTION ( 'NONE',  ( 0.0000000000000000000, 0.0000000000000000000, -1.000000000000000000 ) ) ;
#251 = AXIS2_PLACEMENT_3D ( 'NONE', #277, #23, #307 ) ;
#252 = CARTESIAN_POINT ( 'NONE',  ( 0.0000000000000000000, 0.0000000000000000000, -2.100000000000000100 ) ) ;
#253 = ORIENTED_EDGE ( 'NONE', *, *, #234, .F. ) ;
#254 = PRODUCT_DEFINITION_FORMATION_WITH_SPECIFIED_SOURCE ( 'ANY', '', #63, .NOT_KNOWN. ) ;
#255 = CARTESIAN_POINT ( 'NONE',  ( 0.0000000000000000000, 0.0000000000000000000, 0.0000000000000000000 ) ) ;
#256 = ORIENTED_EDGE ( 'NONE', *, *, #37, .T. ) ;
#257 = DIRECTION ( 'NONE',  ( 0.0000000000000000000, 0.0000000000000000000, 1.000000000000000000 ) ) ;
#258 = AXIS2_PLACEMENT_3D ( 'NONE', #309, #104, #361 ) ;
#259 = CARTESIAN_POINT ( 'NONE',  ( 1.224646799147353200E-016, 6.999999999999999100, 1.000000000000000000 ) ) ;
#260 = CIRCLE ( 'NONE', #102, 1.000000000000000000 ) ;
#261 = CARTESIAN_POINT ( 'NONE',  ( 2.571758278209442000E-016, 13.00000000000000200, 2.100000000000000100 ) ) ;
#262 = EDGE_CURVE ( 'NONE', #78, #274, #317, .T. ) ;
#263 = CIRCLE ( 'NONE', #276, 0.4999999999999970000 ) ;
#264 = DIRECTION ( 'NONE',  ( 0.0000000000000000000, 0.0000000000000000000, -1.000000000000000000 ) ) ;
#265 = CARTESIAN_POINT ( 'NONE',  ( 0.0000000000000000000, 0.0000000000000000000, 0.0000000000000000000 ) ) ;
#266 =( GEOMETRIC_REPRESENTATION_CONTEXT ( 3 ) GLOBAL_UNCERTAINTY_ASSIGNED_CONTEXT ( ( #86 ) ) GLOBAL_UNIT_ASSIGNED_CONTEXT ( ( #139, #42, #39 ) ) REPRESENTATION_CONTEXT ( 'NONE', 'WORKASPACE' ) );
#267 = CARTESIAN_POINT ( 'NONE',  ( 0.0000000000000000000, 13.39999999999999900, 0.0000000000000000000 ) ) ;
#268 = VERTEX_POINT ( 'NONE', #36 ) ;
#269 = TOROIDAL_SURFACE ( 'NONE', #310, 1.176239569296599700, 0.5999999999999999800 ) ;
#270 = DIRECTION ( 'NONE',  ( 1.000000000000000000, 0.0000000000000000000, 0.0000000000000000000 ) ) ;
#271 = LINE ( 'NONE', #137, #35 ) ;
#272 = EDGE_LOOP ( 'NONE', ( #43, #296, #142, #92 ) ) ;
#273 = ORIENTED_EDGE ( 'NONE', *, *, #332, .F. ) ;
#274 = VERTEX_POINT ( 'NONE', #121 ) ;
#275 = DIRECTION ( 'NONE',  ( 0.0000000000000000000, 0.0000000000000000000, -1.000000000000000000 ) ) ;
#276 = AXIS2_PLACEMENT_3D ( 'NONE', #48, #82, #84 ) ;
#277 = CARTESIAN_POINT ( 'NONE',  ( 1.000000000000000000, 6.999999999999999100, 0.0000000000000000000 ) ) ;
#278 = VECTOR ( 'NONE', #50, 1000.000000000000100 ) ;
#279 = DIRECTION ( 'NONE',  ( 0.0000000000000000000, 0.0000000000000000000, 1.000000000000000000 ) ) ;
#280 = PRESENTATION_LAYER_ASSIGNMENT (  '', '', ( #25 ) ) ;
#281 = DIRECTION ( 'NONE',  ( 6.123233995736782100E-017, -0.8660254037844380400, 0.5000000000000012200 ) ) ;
#282 = ORIENTED_EDGE ( 'NONE', *, *, #198, .T. ) ;
#283 = CIRCLE ( 'NONE', #12, 2.100000000000000100 ) ;
#284 = ORIENTED_EDGE ( 'NONE', *, *, #155, .T. ) ;
#285 = CARTESIAN_POINT ( 'NONE',  ( 2.571758278209442000E-016, 13.00000000000000200, 2.100000000000000100 ) ) ;
#286 = DIRECTION ( 'NONE',  ( -0.0000000000000000000, -1.000000000000000000, -0.0000000000000000000 ) ) ;
#287 = FACE_OUTER_BOUND ( 'NONE', #128, .T. ) ;
#288 = DIRECTION ( 'NONE',  ( -0.0000000000000000000, -1.000000000000000000, -0.0000000000000000000 ) ) ;
#289 = AXIS2_PLACEMENT_3D ( 'NONE', #158, #215, #336 ) ;
#290 = DIRECTION ( 'NONE',  ( 0.0000000000000000000, 0.0000000000000000000, -1.000000000000000000 ) ) ;
#291 = CARTESIAN_POINT ( 'NONE',  ( 0.0000000000000000000, 13.00000000000000200, 0.0000000000000000000 ) ) ;
#292 = ORIENTED_EDGE ( 'NONE', *, *, #234, .T. ) ;
#293 = ADVANCED_FACE ( 'NONE', ( #24 ), #269, .T. ) ;
#294 =( LENGTH_UNIT ( ) NAMED_UNIT ( * ) SI_UNIT ( .MILLI., .METRE. ) );
#295 = CIRCLE ( 'NONE', #367, 1.000000000000000000 ) ;
#296 = ORIENTED_EDGE ( 'NONE', *, *, #174, .T. ) ;
#297 = CIRCLE ( 'NONE', #204, 2.100000000000000100 ) ;
#298 = CYLINDRICAL_SURFACE ( 'NONE', #348, 1.000000000000000000 ) ;
#299 = UNCERTAINTY_MEASURE_WITH_UNIT (LENGTH_MEASURE( 1.000000000000000100E-005 ), #338, 'distance_accuracy_value', 'NONE');
#300 = PRESENTATION_LAYER_ASSIGNMENT (  '', '', ( #242 ) ) ;
#301 = VECTOR ( 'NONE', #81, 1000.000000000000000 ) ;
#302 = EDGE_LOOP ( 'NONE', ( #19, #256, #76, #218 ) ) ;
#303 = EDGE_CURVE ( 'NONE', #368, #345, #180, .T. ) ;
#304 = PLANE ( 'NONE',  #251 ) ;
#305 = VERTEX_POINT ( 'NONE', #116 ) ;
#306 = FACE_OUTER_BOUND ( 'NONE', #71, .T. ) ;
#307 = DIRECTION ( 'NONE',  ( 0.0000000000000000000, 0.0000000000000000000, -1.000000000000000000 ) ) ;
#308 = ORIENTED_EDGE ( 'NONE', *, *, #344, .F. ) ;
#309 = CARTESIAN_POINT ( 'NONE',  ( 0.0000000000000000000, 7.000000000000000000, 0.0000000000000000000 ) ) ;
#310 = AXIS2_PLACEMENT_3D ( 'NONE', #267, #94, #64 ) ;
#311 = CARTESIAN_POINT ( 'NONE',  ( 0.0000000000000000000, 13.99999999999999800, 0.0000000000000000000 ) ) ;
#312 = DIRECTION ( 'NONE',  ( -0.0000000000000000000, -1.000000000000000000, -0.0000000000000000000 ) ) ;
#313 = CLOSED_SHELL ( 'NONE', ( #293, #186, #353, #177, #11, #328, #243, #149, #40, #46, #15, #74, #100 ) ) ;
#314 = ORIENTED_EDGE ( 'NONE', *, *, #155, .F. ) ;
#315 = ORIENTED_EDGE ( 'NONE', *, *, #18, .F. ) ;
#316 = DIRECTION ( 'NONE',  ( -0.0000000000000000000, -1.000000000000000000, -0.0000000000000000000 ) ) ;
#317 = LINE ( 'NONE', #93, #22 ) ;
#318 = EDGE_LOOP ( 'NONE', ( #65, #315, #124, #273 ) ) ;
#319 = CIRCLE ( 'NONE', #77, 0.4999999999999970000 ) ;
#320 = DIRECTION ( 'NONE',  ( -1.000000000000000000, 0.0000000000000000000, 0.0000000000000000000 ) ) ;
#321 = CARTESIAN_POINT ( 'NONE',  ( 0.0000000000000000000, 0.0000000000000000000, 0.4999999999999970000 ) ) ;
#322 = ORIENTED_EDGE ( 'NONE', *, *, #207, .F. ) ;
#323 = VERTEX_POINT ( 'NONE', #230 ) ;
#324 = AXIS2_PLACEMENT_3D ( 'NONE', #265, #350, #238 ) ;
#325 = VERTEX_POINT ( 'NONE', #321 ) ;
#326 = ORIENTED_EDGE ( 'NONE', *, *, #157, .T. ) ;
#327 = EDGE_CURVE ( 'NONE', #323, #140, #295, .T. ) ;
#328 = ADVANCED_FACE ( 'NONE', ( #306 ), #122, .T. ) ;
#329 = VERTEX_POINT ( 'NONE', #175 ) ;
#330 = SURFACE_STYLE_USAGE ( .BOTH. , #208 ) ;
#331 = AXIS2_PLACEMENT_3D ( 'NONE', #5, #145, #32 ) ;
#332 = EDGE_CURVE ( 'NONE', #329, #20, #101, .T. ) ;
#333 = ORIENTED_EDGE ( 'NONE', *, *, #207, .T. ) ;
#334 = CARTESIAN_POINT ( 'NONE',  ( 0.0000000000000000000, 13.39999999999999900, 0.0000000000000000000 ) ) ;
#335 = ORIENTED_EDGE ( 'NONE', *, *, #327, .T. ) ;
#336 = DIRECTION ( 'NONE',  ( 0.0000000000000000000, 0.0000000000000000000, -1.000000000000000000 ) ) ;
#337 = MECHANICAL_DESIGN_GEOMETRIC_PRESENTATION_REPRESENTATION (  '', ( #25 ), #123 ) ;
#338 =( LENGTH_UNIT ( ) NAMED_UNIT ( * ) SI_UNIT ( .MILLI., .METRE. ) );
#339 = FACE_OUTER_BOUND ( 'NONE', #340, .T. ) ;
#340 = EDGE_LOOP ( 'NONE', ( #282, #56 ) ) ;
#341 = CARTESIAN_POINT ( 'NONE',  ( 0.0000000000000000000, 13.69999999999999900, 0.0000000000000000000 ) ) ;
#342 = EDGE_CURVE ( 'NONE', #140, #20, #161, .T. ) ;
#343 = ORIENTED_EDGE ( 'NONE', *, *, #332, .T. ) ;
#344 = EDGE_CURVE ( 'NONE', #268, #368, #6, .T. ) ;
#345 = VERTEX_POINT ( 'NONE', #347 ) ;
#346 = FILL_AREA_STYLE_COLOUR ( '', #228 ) ;
#347 = CARTESIAN_POINT ( 'NONE',  ( 1.758650595187014100E-016, 13.99999999999999800, -1.176239569296599700 ) ) ;
#348 = AXIS2_PLACEMENT_3D ( 'NONE', #26, #249, #275 ) ;
#349 = DIRECTION ( 'NONE',  ( -0.0000000000000000000, -1.000000000000000000, -0.0000000000000000000 ) ) ;
#350 = DIRECTION ( 'NONE',  ( -0.0000000000000000000, -1.000000000000000000, -0.0000000000000000000 ) ) ;
#351 = CIRCLE ( 'NONE', #173, 1.176239569296599700 ) ;
#352 =( NAMED_UNIT ( * ) SI_UNIT ( $, .STERADIAN. ) SOLID_ANGLE_UNIT ( ) );
#353 = ADVANCED_FACE ( 'NONE', ( #240 ), #53, .T. ) ;
#354 = VERTEX_POINT ( 'NONE', #231 ) ;
#355 = APPLICATION_PROTOCOL_DEFINITION ( 'draft international standard', 'automotive_design', 1998, #152 ) ;
#356 = ORIENTED_EDGE ( 'NONE', *, *, #160, .F. ) ;
#357 = AXIS2_PLACEMENT_3D ( 'NONE', #38, #143, #290 ) ;
#358 = EDGE_LOOP ( 'NONE', ( #79, #245 ) ) ;
#359 = EDGE_CURVE ( 'NONE', #274, #236, #297, .T. ) ;
#360 = SURFACE_STYLE_USAGE ( .BOTH. , #246 ) ;
#361 = DIRECTION ( 'NONE',  ( 0.0000000000000000000, 0.0000000000000000000, -1.000000000000000000 ) ) ;
#362 = PRESENTATION_STYLE_ASSIGNMENT (( #330 ) ) ;
#363 = CIRCLE ( 'NONE', #34, 1.000000000000000000 ) ;
#364 = CARTESIAN_POINT ( 'NONE',  ( 0.0000000000000000000, 0.0000000000000000000, 0.0000000000000000000 ) ) ;
#365 = ORIENTED_EDGE ( 'NONE', *, *, #72, .T. ) ;
#366 =( NAMED_UNIT ( * ) SI_UNIT ( $, .STERADIAN. ) SOLID_ANGLE_UNIT ( ) );
#367 = AXIS2_PLACEMENT_3D ( 'NONE', #172, #288, #119 ) ;
#368 = VERTEX_POINT ( 'NONE', #115 ) ;
#369 = DIRECTION ( 'NONE',  ( -0.0000000000000000000, -1.000000000000000000, -0.0000000000000000000 ) ) ;
#370 = DIRECTION ( 'NONE',  ( 0.0000000000000000000, 1.000000000000000000, 0.0000000000000000000 ) ) ;
#371 = LINE ( 'NONE', #62, #44 ) ;
#372 = FACE_OUTER_BOUND ( 'NONE', #167, .T. ) ;
ENDSEC;
END-ISO-10303-21;
