ISO-10303-21;
HEADER;
FILE_DESCRIPTION (( 'STEP AP214' ),
    '1' );
FILE_NAME ('42745~0.STEP',
    '2017-07-04T09:08:02',
    ( '' ),
    ( '' ),
    'SwSTEP 2.0',
    'SolidWorks 2016',
    '' );
FILE_SCHEMA (( 'AUTOMOTIVE_DESIGN' ));
ENDSEC;

DATA;
#1 = ORIENTED_EDGE ( 'NONE', *, *, #196, .T. ) ;
#2 = DIRECTION ( 'NONE',  ( 0.0000000000000000000, -1.000000000000000000, -0.0000000000000000000 ) ) ;
#3 = EDGE_CURVE ( 'NONE', #46, #284, #14, .T. ) ;
#4 = CIRCLE ( 'NONE', #323, 1.000000000000000000 ) ;
#5 = CARTESIAN_POINT ( 'NONE',  ( 0.0000000000000000000, 0.0000000000000000000, 0.5000000000000004400 ) ) ;
#6 = EDGE_CURVE ( 'NONE', #56, #368, #4, .T. ) ;
#7 = DIRECTION ( 'NONE',  ( -0.0000000000000000000, -1.000000000000000000, -0.0000000000000000000 ) ) ;
#8 = SURFACE_STYLE_USAGE ( .BOTH. , #165 ) ;
#9 = ORIENTED_EDGE ( 'NONE', *, *, #133, .T. ) ;
#10 = EDGE_LOOP ( 'NONE', ( #258, #155, #139, #104 ) ) ;
#11 = CARTESIAN_POINT ( 'NONE',  ( 1.881115275101748600E-016, 13.99999999999999800, -1.276239569296599500 ) ) ;
#12 = AXIS2_PLACEMENT_3D ( 'NONE', #253, #41, #280 ) ;
#13 = ORIENTED_EDGE ( 'NONE', *, *, #281, .F. ) ;
#14 = LINE ( 'NONE', #171, #49 ) ;
#15 = DIRECTION ( 'NONE',  ( -0.0000000000000000000, -1.000000000000000000, -0.0000000000000000000 ) ) ;
#16 = AXIS2_PLACEMENT_3D ( 'NONE', #53, #242, #294 ) ;
#17 = DIRECTION ( 'NONE',  ( 0.0000000000000000000, -0.8660254037844380400, -0.5000000000000012200 ) ) ;
#18 = LINE ( 'NONE', #361, #310 ) ;
#19 = FACE_OUTER_BOUND ( 'NONE', #278, .T. ) ;
#20 = EDGE_CURVE ( 'NONE', #28, #327, #161, .T. ) ;
#21 =( LENGTH_UNIT ( ) NAMED_UNIT ( * ) SI_UNIT ( .MILLI., .METRE. ) );
#22 = CARTESIAN_POINT ( 'NONE',  ( 0.0000000000000000000, 13.00000000000000200, 0.0000000000000000000 ) ) ;
#23 = ORIENTED_EDGE ( 'NONE', *, *, #301, .F. ) ;
#24 = FILL_AREA_STYLE ('',( #129 ) ) ;
#25 = EDGE_CURVE ( 'NONE', #111, #305, #239, .T. ) ;
#26 = APPLICATION_PROTOCOL_DEFINITION ( 'draft international standard', 'automotive_design', 1998, #134 ) ;
#27 = PRESENTATION_LAYER_ASSIGNMENT (  '', '', ( #191 ) ) ;
#28 = VERTEX_POINT ( 'NONE', #11 ) ;
#29 =( NAMED_UNIT ( * ) PLANE_ANGLE_UNIT ( ) SI_UNIT ( $, .RADIAN. ) );
#30 = ORIENTED_EDGE ( 'NONE', *, *, #20, .F. ) ;
#31 = EDGE_CURVE ( 'NONE', #327, #28, #59, .T. ) ;
#32 = FACE_OUTER_BOUND ( 'NONE', #36, .T. ) ;
#33 = AXIS2_PLACEMENT_3D ( 'NONE', #351, #122, #99 ) ;
#34 = AXIS2_PLACEMENT_3D ( 'NONE', #275, #344, #227 ) ;
#35 = UNCERTAINTY_MEASURE_WITH_UNIT (LENGTH_MEASURE( 1.000000000000000100E-005 ), #21, 'distance_accuracy_value', 'NONE');
#36 = EDGE_LOOP ( 'NONE', ( #23, #224, #252, #69 ) ) ;
#37 = DIRECTION ( 'NONE',  ( 0.0000000000000000000, 0.0000000000000000000, 1.000000000000000000 ) ) ;
#38 = DIRECTION ( 'NONE',  ( 0.0000000000000000000, 0.0000000000000000000, -1.000000000000000000 ) ) ;
#39 = CIRCLE ( 'NONE', #12, 0.5000000000000004400 ) ;
#40 = AXIS2_PLACEMENT_3D ( 'NONE', #348, #233, #175 ) ;
#41 = DIRECTION ( 'NONE',  ( -0.0000000000000000000, -1.000000000000000000, -0.0000000000000000000 ) ) ;
#42 = ORIENTED_EDGE ( 'NONE', *, *, #340, .T. ) ;
#43 = PLANE ( 'NONE',  #40 ) ;
#44 =( GEOMETRIC_REPRESENTATION_CONTEXT ( 3 ) GLOBAL_UNCERTAINTY_ASSIGNED_CONTEXT ( ( #249 ) ) GLOBAL_UNIT_ASSIGNED_CONTEXT ( ( #248, #116, #92 ) ) REPRESENTATION_CONTEXT ( 'NONE', 'WORKASPACE' ) );
#45 = CARTESIAN_POINT ( 'NONE',  ( 1.622649730810373100, 13.99999999999999800, 0.0000000000000000000 ) ) ;
#46 = VERTEX_POINT ( 'NONE', #97 ) ;
#47 = CARTESIAN_POINT ( 'NONE',  ( 2.446755402421699200E-016, 13.70000000000000100, 1.795854811567262600 ) ) ;
#48 = ADVANCED_FACE ( 'NONE', ( #107 ), #137, .T. ) ;
#49 = VECTOR ( 'NONE', #169, 1000.000000000000000 ) ;
#50 = CARTESIAN_POINT ( 'NONE',  ( 0.0000000000000000000, 0.0000000000000000000, 0.0000000000000000000 ) ) ;
#51 = DIRECTION ( 'NONE',  ( 0.0000000000000000000, 0.0000000000000000000, -1.000000000000000000 ) ) ;
#52 = SURFACE_STYLE_USAGE ( .BOTH. , #215 ) ;
#53 = CARTESIAN_POINT ( 'NONE',  ( 0.0000000000000000000, 13.39999999999999900, 0.0000000000000000000 ) ) ;
#54 = CARTESIAN_POINT ( 'NONE',  ( 1.000000000000000000, 6.999999999999999100, 0.0000000000000000000 ) ) ;
#55 = ADVANCED_FACE ( 'NONE', ( #201 ), #292, .T. ) ;
#56 = VERTEX_POINT ( 'NONE', #100 ) ;
#57 = AXIS2_PLACEMENT_3D ( 'NONE', #277, #202, #71 ) ;
#58 = PLANE ( 'NONE',  #343 ) ;
#59 = CIRCLE ( 'NONE', #34, 1.276239569296599500 ) ;
#60 = EDGE_LOOP ( 'NONE', ( #289, #285, #271, #359 ) ) ;
#61 = ORIENTED_EDGE ( 'NONE', *, *, #333, .F. ) ;
#62 = AXIS2_PLACEMENT_3D ( 'NONE', #45, #154, #184 ) ;
#63 = FACE_OUTER_BOUND ( 'NONE', #337, .T. ) ;
#64 = PRESENTATION_STYLE_ASSIGNMENT (( #52 ) ) ;
#65 = EDGE_LOOP ( 'NONE', ( #210, #352, #167, #118 ) ) ;
#66 = CIRCLE ( 'NONE', #214, 1.000000000000000000 ) ;
#67 = EDGE_CURVE ( 'NONE', #72, #46, #315, .T. ) ;
#68 = CARTESIAN_POINT ( 'NONE',  ( 0.0000000000000000000, 13.99999999999999800, 0.0000000000000000000 ) ) ;
#69 = ORIENTED_EDGE ( 'NONE', *, *, #151, .F. ) ;
#70 = CLOSED_SHELL ( 'NONE', ( #268, #48, #153, #238, #55, #221, #370, #217, #331, #187, #159, #106, #335 ) ) ;
#71 = DIRECTION ( 'NONE',  ( 0.0000000000000000000, 0.0000000000000000000, 1.000000000000000000 ) ) ;
#72 = VERTEX_POINT ( 'NONE', #75 ) ;
#73 = ORIENTED_EDGE ( 'NONE', *, *, #25, .T. ) ;
#74 = FACE_OUTER_BOUND ( 'NONE', #172, .T. ) ;
#75 = CARTESIAN_POINT ( 'NONE',  ( 0.0000000000000000000, 13.70000000000000100, -1.795854811567262600 ) ) ;
#76 = ORIENTED_EDGE ( 'NONE', *, *, #157, .F. ) ;
#77 = EDGE_LOOP ( 'NONE', ( #13, #126, #190, #61 ) ) ;
#78 = TOROIDAL_SURFACE ( 'NONE', #95, 1.276239569296599500, 0.5999999999999999800 ) ;
#79 =( NAMED_UNIT ( * ) SI_UNIT ( $, .STERADIAN. ) SOLID_ANGLE_UNIT ( ) );
#80 = CARTESIAN_POINT ( 'NONE',  ( 0.0000000000000000000, 0.5000000000000030000, 0.0000000000000000000 ) ) ;
#81 = DIRECTION ( 'NONE',  ( -0.0000000000000000000, -1.000000000000000000, -0.0000000000000000000 ) ) ;
#82 = EDGE_LOOP ( 'NONE', ( #259, #1 ) ) ;
#83 = DIRECTION ( 'NONE',  ( 0.0000000000000000000, 0.0000000000000000000, -1.000000000000000000 ) ) ;
#84 =( GEOMETRIC_REPRESENTATION_CONTEXT ( 3 ) GLOBAL_UNCERTAINTY_ASSIGNED_CONTEXT ( ( #35 ) ) GLOBAL_UNIT_ASSIGNED_CONTEXT ( ( #21, #127, #79 ) ) REPRESENTATION_CONTEXT ( 'NONE', 'WORKASPACE' ) );
#85 = DIRECTION ( 'NONE',  ( 0.0000000000000000000, 0.0000000000000000000, -1.000000000000000000 ) ) ;
#86 = CYLINDRICAL_SURFACE ( 'NONE', #33, 1.000000000000000000 ) ;
#87 = CARTESIAN_POINT ( 'NONE',  ( 1.562942703484277300E-016, 13.39999999999999900, -1.276239569296599500 ) ) ;
#88 = CARTESIAN_POINT ( 'NONE',  ( 1.224646799147353200E-016, 0.0000000000000000000, 1.000000000000000000 ) ) ;
#89 = DIRECTION ( 'NONE',  ( 1.000000000000000000, -0.0000000000000000000, 1.224646799147353200E-016 ) ) ;
#90 = ORIENTED_EDGE ( 'NONE', *, *, #355, .F. ) ;
#91 = ORIENTED_EDGE ( 'NONE', *, *, #6, .F. ) ;
#92 =( NAMED_UNIT ( * ) SI_UNIT ( $, .STERADIAN. ) SOLID_ANGLE_UNIT ( ) );
#93 = DIRECTION ( 'NONE',  ( 0.0000000000000000000, 1.000000000000000000, 0.0000000000000000000 ) ) ;
#94 = UNCERTAINTY_MEASURE_WITH_UNIT (LENGTH_MEASURE( 1.000000000000000100E-005 ), #267, 'distance_accuracy_value', 'NONE');
#95 = AXIS2_PLACEMENT_3D ( 'NONE', #103, #108, #290 ) ;
#96 = ORIENTED_EDGE ( 'NONE', *, *, #6, .T. ) ;
#97 = CARTESIAN_POINT ( 'NONE',  ( 0.0000000000000000000, 13.00000000000000200, -2.200000000000000200 ) ) ;
#98 = DIRECTION ( 'NONE',  ( -0.0000000000000000000, -1.000000000000000000, -0.0000000000000000000 ) ) ;
#99 = DIRECTION ( 'NONE',  ( 0.0000000000000000000, 0.0000000000000000000, -1.000000000000000000 ) ) ;
#100 = CARTESIAN_POINT ( 'NONE',  ( 0.0000000000000000000, 6.999999999999999100, -1.000000000000000000 ) ) ;
#101 = DIRECTION ( 'NONE',  ( -0.0000000000000000000, -1.000000000000000000, -0.0000000000000000000 ) ) ;
#102 = AXIS2_PLACEMENT_3D ( 'NONE', #220, #261, #125 ) ;
#103 = CARTESIAN_POINT ( 'NONE',  ( 0.0000000000000000000, 13.39999999999999900, 0.0000000000000000000 ) ) ;
#104 = ORIENTED_EDGE ( 'NONE', *, *, #67, .F. ) ;
#105 = LINE ( 'NONE', #88, #140 ) ;
#106 = ADVANCED_FACE ( 'NONE', ( #300 ), #131, .T. ) ;
#107 = FACE_OUTER_BOUND ( 'NONE', #266, .T. ) ;
#108 = DIRECTION ( 'NONE',  ( 0.0000000000000000000, 1.000000000000000000, 0.0000000000000000000 ) ) ;
#109 =( NAMED_UNIT ( * ) SI_UNIT ( $, .STERADIAN. ) SOLID_ANGLE_UNIT ( ) );
#110 = AXIS2_PLACEMENT_3D ( 'NONE', #181, #235, #260 ) ;
#111 = VERTEX_POINT ( 'NONE', #318 ) ;
#112 = CARTESIAN_POINT ( 'NONE',  ( 0.0000000000000000000, 13.39999999999999900, 1.276239569296599500 ) ) ;
#113 = TOROIDAL_SURFACE ( 'NONE', #16, 1.276239569296599500, 0.5999999999999999800 ) ;
#114 = CIRCLE ( 'NONE', #306, 2.200000000000000200 ) ;
#115 = DIRECTION ( 'NONE',  ( 1.000000000000000000, 0.0000000000000000000, 0.0000000000000000000 ) ) ;
#116 =( NAMED_UNIT ( * ) PLANE_ANGLE_UNIT ( ) SI_UNIT ( $, .RADIAN. ) );
#117 = DIRECTION ( 'NONE',  ( 8.659560562354903300E-017, 0.7071067811865500200, -0.7071067811865451300 ) ) ;
#118 = ORIENTED_EDGE ( 'NONE', *, *, #244, .F. ) ;
#119 = MECHANICAL_DESIGN_GEOMETRIC_PRESENTATION_REPRESENTATION (  '', ( #250 ), #84 ) ;
#120 = DIRECTION ( 'NONE',  ( 0.0000000000000000000, 1.000000000000000000, 0.0000000000000000000 ) ) ;
#121 = ORIENTED_EDGE ( 'NONE', *, *, #20, .T. ) ;
#122 = DIRECTION ( 'NONE',  ( -0.0000000000000000000, -1.000000000000000000, -0.0000000000000000000 ) ) ;
#123 = AXIS2_PLACEMENT_3D ( 'NONE', #330, #324, #51 ) ;
#124 = DIRECTION ( 'NONE',  ( 0.0000000000000000000, 0.0000000000000000000, -1.000000000000000000 ) ) ;
#125 = DIRECTION ( 'NONE',  ( 0.0000000000000000000, 0.0000000000000000000, 1.000000000000000000 ) ) ;
#126 = ORIENTED_EDGE ( 'NONE', *, *, #355, .T. ) ;
#127 =( NAMED_UNIT ( * ) PLANE_ANGLE_UNIT ( ) SI_UNIT ( $, .RADIAN. ) );
#128 = DIRECTION ( 'NONE',  ( 0.0000000000000000000, 1.000000000000000000, 0.0000000000000000000 ) ) ;
#129 = FILL_AREA_STYLE_COLOUR ( '', #145 ) ;
#130 = ORIENTED_EDGE ( 'NONE', *, *, #333, .T. ) ;
#131 = CONICAL_SURFACE ( 'NONE', #168, 0.5000000000000004400, 0.7853981633974447300 ) ;
#132 = ORIENTED_EDGE ( 'NONE', *, *, #141, .F. ) ;
#133 = EDGE_CURVE ( 'NONE', #200, #284, #270, .T. ) ;
#134 = APPLICATION_CONTEXT ( 'automotive_design' ) ;
#135 = ORIENTED_EDGE ( 'NONE', *, *, #308, .F. ) ;
#136 = FILL_AREA_STYLE ('',( #303 ) ) ;
#137 = CONICAL_SURFACE ( 'NONE', #57, 0.5000000000000004400, 0.7853981633974447300 ) ;
#138 = PRODUCT_DEFINITION_FORMATION_WITH_SPECIFIED_SOURCE ( 'ANY', '', #147, .NOT_KNOWN. ) ;
#139 = ORIENTED_EDGE ( 'NONE', *, *, #209, .F. ) ;
#140 = VECTOR ( 'NONE', #192, 1000.000000000000000 ) ;
#141 = EDGE_CURVE ( 'NONE', #338, #346, #182, .T. ) ;
#142 =( GEOMETRIC_REPRESENTATION_CONTEXT ( 3 ) GLOBAL_UNCERTAINTY_ASSIGNED_CONTEXT ( ( #94 ) ) GLOBAL_UNIT_ASSIGNED_CONTEXT ( ( #267, #29, #109 ) ) REPRESENTATION_CONTEXT ( 'NONE', 'WORKASPACE' ) );
#143 = ORIENTED_EDGE ( 'NONE', *, *, #222, .F. ) ;
#144 = ORIENTED_EDGE ( 'NONE', *, *, #31, .T. ) ;
#145 = COLOUR_RGB ( '',0.7529411764705882200, 0.7529411764705882200, 0.7529411764705882200 ) ;
#146 = CYLINDRICAL_SURFACE ( 'NONE', #123, 2.200000000000000200 ) ;
#147 = PRODUCT ( '42745~0', '42745~0', '', ( #342 ) ) ;
#148 = CARTESIAN_POINT ( 'NONE',  ( 2.694222958124177000E-016, 7.000000000000000000, 2.200000000000000200 ) ) ;
#149 = CARTESIAN_POINT ( 'NONE',  ( 0.0000000000000000000, 0.0000000000000000000, 0.0000000000000000000 ) ) ;
#150 = CARTESIAN_POINT ( 'NONE',  ( 0.0000000000000000000, 0.0000000000000000000, -1.000000000000000000 ) ) ;
#151 = EDGE_CURVE ( 'NONE', #211, #46, #114, .T. ) ;
#152 = CARTESIAN_POINT ( 'NONE',  ( 0.0000000000000000000, 7.000000000000000000, -2.200000000000000200 ) ) ;
#153 = ADVANCED_FACE ( 'NONE', ( #365 ), #86, .T. ) ;
#154 = DIRECTION ( 'NONE',  ( 0.0000000000000000000, 1.000000000000000000, 0.0000000000000000000 ) ) ;
#155 = ORIENTED_EDGE ( 'NONE', *, *, #301, .T. ) ;
#156 = DIRECTION ( 'NONE',  ( 0.0000000000000000000, 0.0000000000000000000, -1.000000000000000000 ) ) ;
#157 = EDGE_CURVE ( 'NONE', #56, #305, #205, .T. ) ;
#158 = PRODUCT_DEFINITION_SHAPE ( 'NONE', 'NONE',  #160 ) ;
#159 = ADVANCED_FACE ( 'NONE', ( #297 ), #43, .T. ) ;
#160 = PRODUCT_DEFINITION ( 'UNKNOWN', '', #138, #218 ) ;
#161 = CIRCLE ( 'NONE', #345, 1.276239569296599500 ) ;
#162 = CARTESIAN_POINT ( 'NONE',  ( 2.694222958124177000E-016, 0.0000000000000000000, 2.200000000000000200 ) ) ;
#163 = COLOUR_RGB ( '',0.7529411764705882200, 0.7529411764705882200, 0.7529411764705882200 ) ;
#164 = CYLINDRICAL_SURFACE ( 'NONE', #319, 2.200000000000000200 ) ;
#165 = SURFACE_SIDE_STYLE ('',( #302 ) ) ;
#166 = EDGE_CURVE ( 'NONE', #284, #200, #240, .T. ) ;
#167 = ORIENTED_EDGE ( 'NONE', *, *, #141, .T. ) ;
#168 = AXIS2_PLACEMENT_3D ( 'NONE', #283, #120, #282 ) ;
#169 = DIRECTION ( 'NONE',  ( -0.0000000000000000000, -1.000000000000000000, -0.0000000000000000000 ) ) ;
#170 = EDGE_CURVE ( 'NONE', #338, #111, #39, .T. ) ;
#171 = CARTESIAN_POINT ( 'NONE',  ( 0.0000000000000000000, 0.0000000000000000000, -2.200000000000000200 ) ) ;
#172 = EDGE_LOOP ( 'NONE', ( #272, #42, #204, #264 ) ) ;
#173 = CARTESIAN_POINT ( 'NONE',  ( 6.123233995736772200E-017, 0.0000000000000000000, -0.5000000000000004400 ) ) ;
#174 = AXIS2_PLACEMENT_3D ( 'NONE', #230, #208, #279 ) ;
#175 = DIRECTION ( 'NONE',  ( 0.0000000000000000000, 0.0000000000000000000, -1.000000000000000000 ) ) ;
#176 = DIRECTION ( 'NONE',  ( 0.0000000000000000000, 0.0000000000000000000, -1.000000000000000000 ) ) ;
#177 = EDGE_CURVE ( 'NONE', #368, #56, #321, .T. ) ;
#178 = DIRECTION ( 'NONE',  ( -0.0000000000000000000, -1.000000000000000000, -0.0000000000000000000 ) ) ;
#179 = FACE_OUTER_BOUND ( 'NONE', #77, .T. ) ;
#180 = MECHANICAL_DESIGN_GEOMETRIC_PRESENTATION_REPRESENTATION (  '', ( #191 ), #44 ) ;
#181 = CARTESIAN_POINT ( 'NONE',  ( 0.0000000000000000000, 13.70000000000000100, 0.0000000000000000000 ) ) ;
#182 = LINE ( 'NONE', #358, #195 ) ;
#183 = ORIENTED_EDGE ( 'NONE', *, *, #231, .F. ) ;
#184 = DIRECTION ( 'NONE',  ( 0.0000000000000000000, -0.0000000000000000000, 1.000000000000000000 ) ) ;
#185 = DIRECTION ( 'NONE',  ( 6.123233995736782100E-017, -0.8660254037844380400, 0.5000000000000012200 ) ) ;
#186 = PLANE ( 'NONE',  #62 ) ;
#187 = ADVANCED_FACE ( 'NONE', ( #243 ), #354, .T. ) ;
#188 = VECTOR ( 'NONE', #101, 1000.000000000000000 ) ;
#189 = CARTESIAN_POINT ( 'NONE',  ( 1.224646799147353200E-016, 0.5000000000000030000, 1.000000000000000000 ) ) ;
#190 = ORIENTED_EDGE ( 'NONE', *, *, #31, .F. ) ;
#191 = STYLED_ITEM ( 'NONE', ( #307 ), #356 ) ;
#192 = DIRECTION ( 'NONE',  ( -0.0000000000000000000, -1.000000000000000000, -0.0000000000000000000 ) ) ;
#193 = FACE_OUTER_BOUND ( 'NONE', #60, .T. ) ;
#194 = AXIS2_PLACEMENT_3D ( 'NONE', #353, #178, #232 ) ;
#195 = VECTOR ( 'NONE', #322, 1000.000000000000100 ) ;
#196 = EDGE_CURVE ( 'NONE', #111, #338, #312, .T. ) ;
#197 = VECTOR ( 'NONE', #117, 1000.000000000000100 ) ;
#198 = DIRECTION ( 'NONE',  ( 0.0000000000000000000, 0.0000000000000000000, 1.000000000000000000 ) ) ;
#199 = AXIS2_PLACEMENT_3D ( 'NONE', #304, #198, #115 ) ;
#200 = VERTEX_POINT ( 'NONE', #148 ) ;
#201 = FACE_OUTER_BOUND ( 'NONE', #10, .T. ) ;
#202 = DIRECTION ( 'NONE',  ( 0.0000000000000000000, 1.000000000000000000, 0.0000000000000000000 ) ) ;
#203 = CARTESIAN_POINT ( 'NONE',  ( 0.0000000000000000000, 13.00000000000000200, -2.200000000000000200 ) ) ;
#204 = ORIENTED_EDGE ( 'NONE', *, *, #166, .F. ) ;
#205 = LINE ( 'NONE', #150, #188 ) ;
#206 = PRESENTATION_LAYER_ASSIGNMENT (  '', '', ( #250 ) ) ;
#207 = DIRECTION ( 'NONE',  ( 0.0000000000000000000, 0.0000000000000000000, -1.000000000000000000 ) ) ;
#208 = DIRECTION ( 'NONE',  ( -0.0000000000000000000, -1.000000000000000000, -0.0000000000000000000 ) ) ;
#209 = EDGE_CURVE ( 'NONE', #46, #211, #317, .T. ) ;
#210 = ORIENTED_EDGE ( 'NONE', *, *, #25, .F. ) ;
#211 = VERTEX_POINT ( 'NONE', #216 ) ;
#212 = VECTOR ( 'NONE', #17, 999.9999999999998900 ) ;
#213 = CONICAL_SURFACE ( 'NONE', #286, 2.200000000000000200, 0.5235987755983002600 ) ;
#214 = AXIS2_PLACEMENT_3D ( 'NONE', #80, #128, #326 ) ;
#215 = SURFACE_SIDE_STYLE ('',( #311 ) ) ;
#216 = CARTESIAN_POINT ( 'NONE',  ( 2.694222958124177000E-016, 13.00000000000000200, 2.200000000000000200 ) ) ;
#217 = ADVANCED_FACE ( 'NONE', ( #193 ), #164, .T. ) ;
#218 = PRODUCT_DEFINITION_CONTEXT ( 'detailed design', #309, 'design' ) ;
#219 = AXIS2_PLACEMENT_3D ( 'NONE', #22, #364, #156 ) ;
#220 = CARTESIAN_POINT ( 'NONE',  ( 0.0000000000000000000, 13.70000000000000100, 0.0000000000000000000 ) ) ;
#221 = ADVANCED_FACE ( 'NONE', ( #19 ), #186, .T. ) ;
#222 = EDGE_CURVE ( 'NONE', #251, #72, #234, .T. ) ;
#223 = DIRECTION ( 'NONE',  ( 0.0000000000000000000, 0.0000000000000000000, -1.000000000000000000 ) ) ;
#224 = ORIENTED_EDGE ( 'NONE', *, *, #222, .T. ) ;
#225 = PRODUCT_RELATED_PRODUCT_CATEGORY ( 'part', '', ( #147 ) ) ;
#226 = CARTESIAN_POINT ( 'NONE',  ( 0.0000000000000000000, 6.999999999999999100, 0.0000000000000000000 ) ) ;
#227 = DIRECTION ( 'NONE',  ( 0.0000000000000000000, 0.0000000000000000000, 1.000000000000000000 ) ) ;
#228 = SHAPE_DEFINITION_REPRESENTATION ( #158, #356 ) ;
#229 = ORIENTED_EDGE ( 'NONE', *, *, #244, .T. ) ;
#230 = CARTESIAN_POINT ( 'NONE',  ( 0.0000000000000000000, 13.00000000000000200, 0.0000000000000000000 ) ) ;
#231 = EDGE_CURVE ( 'NONE', #346, #305, #66, .T. ) ;
#232 = DIRECTION ( 'NONE',  ( 0.0000000000000000000, 0.0000000000000000000, -1.000000000000000000 ) ) ;
#233 = DIRECTION ( 'NONE',  ( 0.0000000000000000000, -1.000000000000000000, -0.0000000000000000000 ) ) ;
#234 = CIRCLE ( 'NONE', #102, 1.795854811567262300 ) ;
#235 = DIRECTION ( 'NONE',  ( -0.0000000000000000000, -1.000000000000000000, -0.0000000000000000000 ) ) ;
#236 = ORIENTED_EDGE ( 'NONE', *, *, #308, .T. ) ;
#237 = ORIENTED_EDGE ( 'NONE', *, *, #231, .T. ) ;
#238 = ADVANCED_FACE ( 'NONE', ( #74 ), #146, .T. ) ;
#239 = LINE ( 'NONE', #173, #197 ) ;
#240 = CIRCLE ( 'NONE', #241, 2.200000000000000200 ) ;
#241 = AXIS2_PLACEMENT_3D ( 'NONE', #357, #98, #176 ) ;
#242 = DIRECTION ( 'NONE',  ( 0.0000000000000000000, 1.000000000000000000, 0.0000000000000000000 ) ) ;
#243 = FACE_OUTER_BOUND ( 'NONE', #313, .T. ) ;
#244 = EDGE_CURVE ( 'NONE', #305, #346, #341, .T. ) ;
#245 = DIRECTION ( 'NONE',  ( -0.0000000000000000000, -1.000000000000000000, -0.0000000000000000000 ) ) ;
#246 = EDGE_LOOP ( 'NONE', ( #91, #362 ) ) ;
#247 = MANIFOLD_SOLID_BREP ( 'Verrundung1', #70 ) ;
#248 =( LENGTH_UNIT ( ) NAMED_UNIT ( * ) SI_UNIT ( .MILLI., .METRE. ) );
#249 = UNCERTAINTY_MEASURE_WITH_UNIT (LENGTH_MEASURE( 1.000000000000000100E-005 ), #248, 'distance_accuracy_value', 'NONE');
#250 = STYLED_ITEM ( 'NONE', ( #64 ), #247 ) ;
#251 = VERTEX_POINT ( 'NONE', #47 ) ;
#252 = ORIENTED_EDGE ( 'NONE', *, *, #67, .T. ) ;
#253 = CARTESIAN_POINT ( 'NONE',  ( 0.0000000000000000000, 0.0000000000000000000, 0.0000000000000000000 ) ) ;
#254 = FACE_OUTER_BOUND ( 'NONE', #366, .T. ) ;
#255 = AXIS2_PLACEMENT_3D ( 'NONE', #149, #15, #207 ) ;
#256 = DIRECTION ( 'NONE',  ( 0.0000000000000000000, 0.0000000000000000000, -1.000000000000000000 ) ) ;
#257 = CARTESIAN_POINT ( 'NONE',  ( 0.0000000000000000000, 7.000000000000000000, 0.0000000000000000000 ) ) ;
#258 = ORIENTED_EDGE ( 'NONE', *, *, #281, .T. ) ;
#259 = ORIENTED_EDGE ( 'NONE', *, *, #170, .T. ) ;
#260 = DIRECTION ( 'NONE',  ( 0.0000000000000000000, 0.0000000000000000000, 1.000000000000000000 ) ) ;
#261 = DIRECTION ( 'NONE',  ( -0.0000000000000000000, -1.000000000000000000, -0.0000000000000000000 ) ) ;
#262 = AXIS2_PLACEMENT_3D ( 'NONE', #257, #320, #124 ) ;
#263 = DIRECTION ( 'NONE',  ( 0.0000000000000000000, 0.0000000000000000000, -1.000000000000000000 ) ) ;
#264 = ORIENTED_EDGE ( 'NONE', *, *, #3, .F. ) ;
#265 = DIRECTION ( 'NONE',  ( 0.0000000000000000000, 1.000000000000000000, 0.0000000000000000000 ) ) ;
#266 = EDGE_LOOP ( 'NONE', ( #276, #73, #183, #132 ) ) ;
#267 =( LENGTH_UNIT ( ) NAMED_UNIT ( * ) SI_UNIT ( .MILLI., .METRE. ) );
#268 = ADVANCED_FACE ( 'NONE', ( #179 ), #78, .T. ) ;
#269 = DIRECTION ( 'NONE',  ( 1.224646799147353700E-016, 0.0000000000000000000, -1.000000000000000000 ) ) ;
#270 = CIRCLE ( 'NONE', #262, 2.200000000000000200 ) ;
#271 = ORIENTED_EDGE ( 'NONE', *, *, #3, .T. ) ;
#272 = ORIENTED_EDGE ( 'NONE', *, *, #209, .T. ) ;
#273 = DIRECTION ( 'NONE',  ( -1.000000000000000000, 0.0000000000000000000, 0.0000000000000000000 ) ) ;
#274 = APPLICATION_PROTOCOL_DEFINITION ( 'draft international standard', 'automotive_design', 1998, #309 ) ;
#275 = CARTESIAN_POINT ( 'NONE',  ( 0.0000000000000000000, 13.99999999999999800, 0.0000000000000000000 ) ) ;
#276 = ORIENTED_EDGE ( 'NONE', *, *, #196, .F. ) ;
#277 = CARTESIAN_POINT ( 'NONE',  ( 0.0000000000000000000, 0.0000000000000000000, 0.0000000000000000000 ) ) ;
#278 = EDGE_LOOP ( 'NONE', ( #144, #121 ) ) ;
#279 = DIRECTION ( 'NONE',  ( 0.0000000000000000000, 0.0000000000000000000, -1.000000000000000000 ) ) ;
#280 = DIRECTION ( 'NONE',  ( 0.0000000000000000000, 0.0000000000000000000, -1.000000000000000000 ) ) ;
#281 = EDGE_CURVE ( 'NONE', #72, #251, #299, .T. ) ;
#282 = DIRECTION ( 'NONE',  ( 0.0000000000000000000, 0.0000000000000000000, 1.000000000000000000 ) ) ;
#283 = CARTESIAN_POINT ( 'NONE',  ( 0.0000000000000000000, 0.0000000000000000000, 0.0000000000000000000 ) ) ;
#284 = VERTEX_POINT ( 'NONE', #152 ) ;
#285 = ORIENTED_EDGE ( 'NONE', *, *, #151, .T. ) ;
#286 = AXIS2_PLACEMENT_3D ( 'NONE', #296, #334, #85 ) ;
#287 = CARTESIAN_POINT ( 'NONE',  ( 0.0000000000000000000, 13.00000000000000200, 0.0000000000000000000 ) ) ;
#288 = CARTESIAN_POINT ( 'NONE',  ( 0.0000000000000000000, 0.5000000000000030000, -1.000000000000000000 ) ) ;
#289 = ORIENTED_EDGE ( 'NONE', *, *, #340, .F. ) ;
#290 = DIRECTION ( 'NONE',  ( 0.0000000000000000000, 0.0000000000000000000, 1.000000000000000000 ) ) ;
#291 = FACE_BOUND ( 'NONE', #246, .T. ) ;
#292 = CONICAL_SURFACE ( 'NONE', #174, 2.200000000000000200, 0.5235987755983002600 ) ;
#293 = CARTESIAN_POINT ( 'NONE',  ( 0.0000000000000000000, 0.0000000000000000000, 0.0000000000000000000 ) ) ;
#294 = DIRECTION ( 'NONE',  ( 0.0000000000000000000, 0.0000000000000000000, 1.000000000000000000 ) ) ;
#295 = AXIS2_PLACEMENT_3D ( 'NONE', #50, #367, #83 ) ;
#296 = CARTESIAN_POINT ( 'NONE',  ( 0.0000000000000000000, 13.00000000000000200, 0.0000000000000000000 ) ) ;
#297 = FACE_OUTER_BOUND ( 'NONE', #82, .T. ) ;
#298 = CIRCLE ( 'NONE', #371, 0.5999999999999998700 ) ;
#299 = CIRCLE ( 'NONE', #110, 1.795854811567262300 ) ;
#300 = FACE_OUTER_BOUND ( 'NONE', #65, .T. ) ;
#301 = EDGE_CURVE ( 'NONE', #251, #211, #18, .T. ) ;
#302 = SURFACE_STYLE_FILL_AREA ( #136 ) ;
#303 = FILL_AREA_STYLE_COLOUR ( '', #163 ) ;
#304 = CARTESIAN_POINT ( 'NONE',  ( 0.0000000000000000000, 0.0000000000000000000, 0.0000000000000000000 ) ) ;
#305 = VERTEX_POINT ( 'NONE', #288 ) ;
#306 = AXIS2_PLACEMENT_3D ( 'NONE', #287, #316, #256 ) ;
#307 = PRESENTATION_STYLE_ASSIGNMENT (( #8 ) ) ;
#308 = EDGE_CURVE ( 'NONE', #368, #346, #105, .T. ) ;
#309 = APPLICATION_CONTEXT ( 'automotive_design' ) ;
#310 = VECTOR ( 'NONE', #185, 999.9999999999998900 ) ;
#311 = SURFACE_STYLE_FILL_AREA ( #24 ) ;
#312 = CIRCLE ( 'NONE', #295, 0.5000000000000004400 ) ;
#313 = EDGE_LOOP ( 'NONE', ( #135, #328, #347, #229 ) ) ;
#314 = ORIENTED_EDGE ( 'NONE', *, *, #166, .T. ) ;
#315 = LINE ( 'NONE', #203, #212 ) ;
#316 = DIRECTION ( 'NONE',  ( -0.0000000000000000000, -1.000000000000000000, -0.0000000000000000000 ) ) ;
#317 = CIRCLE ( 'NONE', #219, 2.200000000000000200 ) ;
#318 = CARTESIAN_POINT ( 'NONE',  ( 9.184850993605152100E-017, 0.0000000000000000000, -0.5000000000000004400 ) ) ;
#319 = AXIS2_PLACEMENT_3D ( 'NONE', #293, #81, #263 ) ;
#320 = DIRECTION ( 'NONE',  ( -0.0000000000000000000, -1.000000000000000000, -0.0000000000000000000 ) ) ;
#321 = CIRCLE ( 'NONE', #194, 1.000000000000000000 ) ;
#322 = DIRECTION ( 'NONE',  ( 0.0000000000000000000, 0.7071067811865500200, 0.7071067811865451300 ) ) ;
#323 = AXIS2_PLACEMENT_3D ( 'NONE', #226, #7, #38 ) ;
#324 = DIRECTION ( 'NONE',  ( -0.0000000000000000000, -1.000000000000000000, -0.0000000000000000000 ) ) ;
#325 = LINE ( 'NONE', #162, #349 ) ;
#326 = DIRECTION ( 'NONE',  ( 0.0000000000000000000, 0.0000000000000000000, -1.000000000000000000 ) ) ;
#327 = VERTEX_POINT ( 'NONE', #339 ) ;
#328 = ORIENTED_EDGE ( 'NONE', *, *, #177, .T. ) ;
#329 = DIRECTION ( 'NONE',  ( 0.0000000000000000000, 0.0000000000000000000, -1.000000000000000000 ) ) ;
#330 = CARTESIAN_POINT ( 'NONE',  ( 0.0000000000000000000, 0.0000000000000000000, 0.0000000000000000000 ) ) ;
#331 = ADVANCED_FACE ( 'NONE', ( #63, #291 ), #58, .T. ) ;
#332 = CIRCLE ( 'NONE', #360, 0.5999999999999998700 ) ;
#333 = EDGE_CURVE ( 'NONE', #251, #327, #298, .T. ) ;
#334 = DIRECTION ( 'NONE',  ( -0.0000000000000000000, -1.000000000000000000, -0.0000000000000000000 ) ) ;
#335 = ADVANCED_FACE ( 'NONE', ( #254 ), #113, .T. ) ;
#336 = AXIS2_PLACEMENT_3D ( 'NONE', #363, #265, #329 ) ;
#337 = EDGE_LOOP ( 'NONE', ( #314, #9 ) ) ;
#338 = VERTEX_POINT ( 'NONE', #5 ) ;
#339 = CARTESIAN_POINT ( 'NONE',  ( 0.0000000000000000000, 13.99999999999999800, 1.276239569296599500 ) ) ;
#340 = EDGE_CURVE ( 'NONE', #211, #200, #325, .T. ) ;
#341 = CIRCLE ( 'NONE', #336, 1.000000000000000000 ) ;
#342 = PRODUCT_CONTEXT ( 'NONE', #134, 'mechanical' ) ;
#343 = AXIS2_PLACEMENT_3D ( 'NONE', #54, #2, #223 ) ;
#344 = DIRECTION ( 'NONE',  ( 0.0000000000000000000, 1.000000000000000000, 0.0000000000000000000 ) ) ;
#345 = AXIS2_PLACEMENT_3D ( 'NONE', #68, #93, #37 ) ;
#346 = VERTEX_POINT ( 'NONE', #189 ) ;
#347 = ORIENTED_EDGE ( 'NONE', *, *, #157, .T. ) ;
#348 = CARTESIAN_POINT ( 'NONE',  ( 0.0000000000000000000, 0.0000000000000000000, 0.0000000000000000000 ) ) ;
#349 = VECTOR ( 'NONE', #245, 1000.000000000000000 ) ;
#350 = EDGE_LOOP ( 'NONE', ( #96, #236, #237, #76 ) ) ;
#351 = CARTESIAN_POINT ( 'NONE',  ( 0.0000000000000000000, 0.0000000000000000000, 0.0000000000000000000 ) ) ;
#352 = ORIENTED_EDGE ( 'NONE', *, *, #170, .F. ) ;
#353 = CARTESIAN_POINT ( 'NONE',  ( 0.0000000000000000000, 6.999999999999999100, 0.0000000000000000000 ) ) ;
#354 = CYLINDRICAL_SURFACE ( 'NONE', #255, 1.000000000000000000 ) ;
#355 = EDGE_CURVE ( 'NONE', #72, #28, #332, .T. ) ;
#356 = ADVANCED_BREP_SHAPE_REPRESENTATION ( '42745~0', ( #247, #199 ), #142 ) ;
#357 = CARTESIAN_POINT ( 'NONE',  ( 0.0000000000000000000, 7.000000000000000000, 0.0000000000000000000 ) ) ;
#358 = CARTESIAN_POINT ( 'NONE',  ( 0.0000000000000000000, 0.0000000000000000000, 0.5000000000000004400 ) ) ;
#359 = ORIENTED_EDGE ( 'NONE', *, *, #133, .F. ) ;
#360 = AXIS2_PLACEMENT_3D ( 'NONE', #87, #89, #269 ) ;
#361 = CARTESIAN_POINT ( 'NONE',  ( 2.694222958124177000E-016, 13.00000000000000200, 2.200000000000000200 ) ) ;
#362 = ORIENTED_EDGE ( 'NONE', *, *, #177, .F. ) ;
#363 = CARTESIAN_POINT ( 'NONE',  ( 0.0000000000000000000, 0.5000000000000030000, 0.0000000000000000000 ) ) ;
#364 = DIRECTION ( 'NONE',  ( -0.0000000000000000000, -1.000000000000000000, -0.0000000000000000000 ) ) ;
#365 = FACE_OUTER_BOUND ( 'NONE', #350, .T. ) ;
#366 = EDGE_LOOP ( 'NONE', ( #90, #143, #130, #30 ) ) ;
#367 = DIRECTION ( 'NONE',  ( -0.0000000000000000000, -1.000000000000000000, -0.0000000000000000000 ) ) ;
#368 = VERTEX_POINT ( 'NONE', #369 ) ;
#369 = CARTESIAN_POINT ( 'NONE',  ( 1.224646799147353200E-016, 6.999999999999999100, 1.000000000000000000 ) ) ;
#370 = ADVANCED_FACE ( 'NONE', ( #32 ), #213, .T. ) ;
#371 = AXIS2_PLACEMENT_3D ( 'NONE', #112, #273, #372 ) ;
#372 = DIRECTION ( 'NONE',  ( 0.0000000000000000000, 0.0000000000000000000, 1.000000000000000000 ) ) ;
ENDSEC;
END-ISO-10303-21;
