ISO-10303-21;
HEADER;
FILE_DESCRIPTION (( 'STEP AP203' ),
    '1' );
FILE_NAME ('INGUN_12681.STEP',
    '2023-04-27T08:59:00',
    ( '' ),
    ( '' ),
    'SwSTEP 2.0',
    'SolidWorks 2021',
    '' );
FILE_SCHEMA (( 'CONFIG_CONTROL_DESIGN' ));
ENDSEC;

DATA;
#1 = VECTOR ( 'NONE', #44, 1000.000000000000000 ) ;
#2 = ADVANCED_FACE ( 'Defeature ausgeführt1_1', ( #182 ), #240, .T. ) ;
#3 = CIRCLE ( 'NONE', #82, 2.500000000000001776 ) ;
#4 = EDGE_CURVE ( 'Defeature ausgeführt1_4+Defeature ausgeführt1_3+Defeature ausgeführt1_3+Defeature ausgeführt1_3', #242, #127, #159, .T. ) ;
#5 = CARTESIAN_POINT ( 'NONE',  ( 1.179585896820410582E-15, 14.99999999999996447, -1.500000000000000000 ) ) ;
#6 = DIRECTION ( 'NONE',  ( 1.025183012878513804E-16, 1.000000000000000000, 8.326672684688671588E-17 ) ) ;
#7 = APPROVAL_PERSON_ORGANIZATION ( #50, #93, #148 ) ;
#8 = DESIGN_CONTEXT ( 'detailed design', #150, 'design' ) ;
#9 = APPROVAL_STATUS ( 'not_yet_approved' ) ;
#10 = CARTESIAN_POINT ( 'NONE',  ( 2.643812481569647630E-15, 28.74568690095842172, 2.861934597721975897E-15 ) ) ;
#11 = COORDINATED_UNIVERSAL_TIME_OFFSET ( 1, 0, .AHEAD. ) ;
#12 = CARTESIAN_POINT ( 'NONE',  ( -3.031465088690546837E-16, -3.642919299551294898E-14, 4.683753385137383099E-16 ) ) ;
#13 = CIRCLE ( 'NONE', #206, 2.500000000000001776 ) ;
#14 = COORDINATED_UNIVERSAL_TIME_OFFSET ( 1, 0, .AHEAD. ) ;
#15 = FACE_OUTER_BOUND ( 'NONE', #30, .T. ) ;
#16 = APPROVAL_STATUS ( 'not_yet_approved' ) ;
#17 = CARTESIAN_POINT ( 'NONE',  ( 1.692177403259667620E-15, 19.99999999999996447, -1.500000000000000888 ) ) ;
#18 = MANIFOLD_SOLID_BREP ( 'Defeature ausgeführt1_3', #236 ) ;
#19 = DIRECTION ( 'NONE',  ( -3.669474241887056873E-17, 0.000000000000000000, -1.000000000000000000 ) ) ;
#20 = CC_DESIGN_PERSON_AND_ORGANIZATION_ASSIGNMENT ( #75, #37, ( #193 ) ) ;
#21 = AXIS2_PLACEMENT_3D ( 'NONE', #253, #230, #171 ) ;
#22 = DIRECTION ( 'NONE',  ( -3.669474241887051943E-17, 1.110223024625156540E-16, -1.000000000000000000 ) ) ;
#23 = SECURITY_CLASSIFICATION ( '', '', #190 ) ;
#24 = ADVANCED_BREP_SHAPE_REPRESENTATION ( 'INGUN_12681', ( #18, #49 ), #161 ) ;
#25 = VERTEX_POINT ( 'NONE', #84 ) ;
#26 = VERTEX_POINT ( 'NONE', #5 ) ;
#27 = ADVANCED_FACE ( 'Defeature ausgeführt1_1', ( #208 ), #186, .T. ) ;
#28 = UNCERTAINTY_MEASURE_WITH_UNIT (LENGTH_MEASURE( 1.000000000000000082E-05 ), #73, 'distance_accuracy_value', 'NONE');
#29 = ORIENTED_EDGE ( 'NONE', *, *, #4, .T. ) ;
#30 = EDGE_LOOP ( 'NONE', ( #169, #103, #122, #105 ) ) ;
#31 = CC_DESIGN_SECURITY_CLASSIFICATION ( #23, ( #193 ) ) ;
#32 = EDGE_LOOP ( 'NONE', ( #144, #204 ) ) ;
#33 = CALENDAR_DATE ( 2023, 27, 4 ) ;
#34 = EDGE_CURVE ( 'NONE', #137, #242, #89, .T. ) ;
#35 = APPROVAL_DATE_TIME ( #211, #93 ) ;
#36 = CARTESIAN_POINT ( 'NONE',  ( 1.234628010448716380E-15, 14.99999999999996447, 1.717376241217039221E-15 ) ) ;
#37 = PERSON_AND_ORGANIZATION_ROLE ( 'creator' ) ;
#38 = DIRECTION ( 'NONE',  ( 1.025183012878513804E-16, 1.000000000000000000, 8.326672684688671588E-17 ) ) ;
#39 = CC_DESIGN_DATE_AND_TIME_ASSIGNMENT ( #145, #205, ( #176 ) ) ;
#40 = DIRECTION ( 'NONE',  ( -3.669474241887051943E-17, 1.110223024625156540E-16, -1.000000000000000000 ) ) ;
#41 = LOCAL_TIME ( 10, 59, 0.000000000000000000, #72 ) ;
#42 = LINE ( 'NONE', #173, #85 ) ;
#43 = EDGE_CURVE ( 'NONE', #26, #127, #241, .T. ) ;
#44 = DIRECTION ( 'NONE',  ( 1.025183012878513804E-16, 1.000000000000000000, 8.326672684688671588E-17 ) ) ;
#45 = ORIENTED_EDGE ( 'NONE', *, *, #141, .F. ) ;
#46 = VERTEX_POINT ( 'NONE', #140 ) ;
#47 = ORIENTED_EDGE ( 'NONE', *, *, #59, .F. ) ;
#48 = CARTESIAN_POINT ( 'NONE',  ( 1.747219516887973417E-15, 19.99999999999996447, 2.133709875451473121E-15 ) ) ;
#49 = AXIS2_PLACEMENT_3D ( 'NONE', #209, #68, #108 ) ;
#50 = PERSON_AND_ORGANIZATION ( #166, #156 ) ;
#51 = DIRECTION ( 'NONE',  ( -3.669474241887050710E-17, 1.110223024625157773E-16, -1.000000000000000000 ) ) ;
#52 = DATE_TIME_ROLE ( 'classification_date' ) ;
#53 = DIRECTION ( 'NONE',  ( 1.025183012878513804E-16, 1.000000000000000000, 8.326672684688671588E-17 ) ) ;
#54 = EDGE_CURVE ( 'NONE', #58, #162, #222, .T. ) ;
#55 = PLANE ( 'NONE',  #218 ) ;
#56 = AXIS2_PLACEMENT_3D ( 'NONE', #153, #233, #22 ) ;
#57 = CARTESIAN_POINT ( 'NONE',  ( 1.362268857424546988E-15, 14.99999999999996447, 1.500000000000003553 ) ) ;
#58 = VERTEX_POINT ( 'NONE', #249 ) ;
#59 = EDGE_CURVE ( 'Defeature ausgeführt1_3+Defeature ausgeführt1_2+Defeature ausgeführt1_2+Defeature ausgeführt1_2', #26, #137, #254, .T. ) ;
#60 = CC_DESIGN_APPROVAL ( #158, ( #23 ) ) ;
#61 = APPROVAL ( #9, 'UNSPECIFIED' ) ;
#62 = DIRECTION ( 'NONE',  ( 1.025183012878513804E-16, 1.000000000000000000, 8.326672684688671588E-17 ) ) ;
#63 = AXIS2_PLACEMENT_3D ( 'NONE', #36, #134, #191 ) ;
#64 = DIRECTION ( 'NONE',  ( 1.025183012878513804E-16, 1.000000000000000000, 8.326672684688671588E-17 ) ) ;
#65 = ORIENTED_EDGE ( 'NONE', *, *, #34, .F. ) ;
#66 = CALENDAR_DATE ( 2023, 27, 4 ) ;
#67 = ORIENTED_EDGE ( 'NONE', *, *, #54, .F. ) ;
#68 = DIRECTION ( 'NONE',  ( 0.000000000000000000, 0.000000000000000000, 1.000000000000000000 ) ) ;
#69 = FACE_OUTER_BOUND ( 'NONE', #123, .T. ) ;
#70 = COORDINATED_UNIVERSAL_TIME_OFFSET ( 1, 0, .AHEAD. ) ;
#71 = DIRECTION ( 'NONE',  ( -3.669474241887050710E-17, 1.110223024625157773E-16, -1.000000000000000000 ) ) ;
#72 = COORDINATED_UNIVERSAL_TIME_OFFSET ( 1, 0, .AHEAD. ) ;
#73 =( LENGTH_UNIT ( ) NAMED_UNIT ( * ) SI_UNIT ( .MILLI., .METRE. ) );
#74 = ADVANCED_FACE ( 'Defeature ausgeführt1_2', ( #155, #97 ), #195, .T. ) ;
#75 = PERSON_AND_ORGANIZATION ( #166, #156 ) ;
#76 = FACE_OUTER_BOUND ( 'NONE', #223, .T. ) ;
#77 = DIRECTION ( 'NONE',  ( -3.669474241887055641E-17, 0.000000000000000000, -1.000000000000000000 ) ) ;
#78 = EDGE_CURVE ( 'Defeature ausgeführt1_4+Defeature ausgeführt1_3+Defeature ausgeführt1_3+Defeature ausgeführt1_3', #127, #242, #164, .T. ) ;
#79 = AXIS2_PLACEMENT_3D ( 'NONE', #124, #225, #106 ) ;
#80 = CC_DESIGN_APPROVAL ( #61, ( #176 ) ) ;
#81 = CC_DESIGN_PERSON_AND_ORGANIZATION_ASSIGNMENT ( #227, #125, ( #234 ) ) ;
#82 = AXIS2_PLACEMENT_3D ( 'NONE', #228, #117, #118 ) ;
#83 = CARTESIAN_POINT ( 'NONE',  ( 2.588770367941341635E-15, 28.74568690095842172, -1.499999999999999556 ) ) ;
#84 = CARTESIAN_POINT ( 'NONE',  ( -3.948833649162309638E-16, -3.615163723935665985E-14, -2.499999999999999112 ) ) ;
#85 = VECTOR ( 'NONE', #226, 1000.000000000000000 ) ;
#86 = ORIENTED_EDGE ( 'NONE', *, *, #149, .T. ) ;
#87 = EDGE_LOOP ( 'NONE', ( #219, #201, #185, #107 ) ) ;
#88 =( NAMED_UNIT ( * ) SI_UNIT ( $, .STERADIAN. ) SOLID_ANGLE_UNIT ( ) );
#89 = LINE ( 'NONE', #198, #1 ) ;
#90 = CALENDAR_DATE ( 2023, 27, 4 ) ;
#91 =( NAMED_UNIT ( * ) PLANE_ANGLE_UNIT ( ) SI_UNIT ( $, .RADIAN. ) );
#92 = MECHANICAL_CONTEXT ( 'NONE', #179, 'mechanical' ) ;
#93 = APPROVAL ( #128, 'UNSPECIFIED' ) ;
#94 = CYLINDRICAL_SURFACE ( 'NONE', #181, 1.500000000000002442 ) ;
#95 = PRODUCT_DEFINITION_SHAPE ( 'NONE', 'NONE',  #176 ) ;
#96 = DATE_AND_TIME ( #244, #188 ) ;
#97 = FACE_BOUND ( 'NONE', #138, .T. ) ;
#98 = DIRECTION ( 'NONE',  ( 1.025183012878513804E-16, 1.000000000000000000, 8.326672684688671588E-17 ) ) ;
#99 = AXIS2_PLACEMENT_3D ( 'NONE', #157, #151, #114 ) ;
#100 = CC_DESIGN_PERSON_AND_ORGANIZATION_ASSIGNMENT ( #170, #250, ( #23 ) ) ;
#101 = PLANE ( 'NONE',  #21 ) ;
#102 = AXIS2_PLACEMENT_3D ( 'NONE', #180, #38, #216 ) ;
#103 = ORIENTED_EDGE ( 'NONE', *, *, #34, .T. ) ;
#104 = CC_DESIGN_PERSON_AND_ORGANIZATION_ASSIGNMENT ( #152, #129, ( #176 ) ) ;
#105 = ORIENTED_EDGE ( 'NONE', *, *, #43, .F. ) ;
#106 = DIRECTION ( 'NONE',  ( -3.669474241887057489E-17, 0.000000000000000000, -1.000000000000000000 ) ) ;
#107 = ORIENTED_EDGE ( 'NONE', *, *, #217, .F. ) ;
#108 = DIRECTION ( 'NONE',  ( 1.000000000000000000, 0.000000000000000000, 0.000000000000000000 ) ) ;
#109 = ORIENTED_EDGE ( 'NONE', *, *, #4, .F. ) ;
#110 = ORIENTED_EDGE ( 'NONE', *, *, #239, .F. ) ;
#111 = APPROVAL_ROLE ( '' ) ;
#112 = CARTESIAN_POINT ( 'NONE',  ( 2.513159070501672116E-16, 14.99999999999996447, 2.500000000000003553 ) ) ;
#113 = DATE_AND_TIME ( #66, #196 ) ;
#114 = DIRECTION ( 'NONE',  ( -3.669474241887045780E-17, 0.000000000000000000, -1.000000000000000000 ) ) ;
#115 = LOCAL_TIME ( 10, 59, 0.000000000000000000, #174 ) ;
#116 = PERSON_AND_ORGANIZATION_ROLE ( 'design_supplier' ) ;
#117 = DIRECTION ( 'NONE',  ( 1.025183012878513804E-16, 1.000000000000000000, 8.326672684688671588E-17 ) ) ;
#118 = DIRECTION ( 'NONE',  ( -3.669474241887055641E-17, 0.000000000000000000, -1.000000000000000000 ) ) ;
#119 = DIRECTION ( 'NONE',  ( 1.025183012878513804E-16, 1.000000000000000000, 8.326672684688671588E-17 ) ) ;
#120 = AXIS2_PLACEMENT_3D ( 'NONE', #175, #53, #213 ) ;
#121 = ADVANCED_FACE ( 'Defeature ausgeführt1_0', ( #69 ), #101, .T. ) ;
#122 = ORIENTED_EDGE ( 'NONE', *, *, #78, .F. ) ;
#123 = EDGE_LOOP ( 'NONE', ( #110, #237 ) ) ;
#124 = CARTESIAN_POINT ( 'NONE',  ( 2.643812481569647630E-15, 28.74568690095842172, 2.861934597721975897E-15 ) ) ;
#125 = PERSON_AND_ORGANIZATION_ROLE ( 'design_owner' ) ;
#126 = VECTOR ( 'NONE', #130, 1000.000000000000000 ) ;
#127 = VERTEX_POINT ( 'NONE', #17 ) ;
#128 = APPROVAL_STATUS ( 'not_yet_approved' ) ;
#129 = PERSON_AND_ORGANIZATION_ROLE ( 'creator' ) ;
#130 = DIRECTION ( 'NONE',  ( 1.025183012878513804E-16, 1.000000000000000000, 8.326672684688671588E-17 ) ) ;
#131 = CARTESIAN_POINT ( 'NONE',  ( 1.234628010448716380E-15, 14.99999999999996447, 1.717376241217039221E-15 ) ) ;
#132 = AXIS2_PLACEMENT_3D ( 'NONE', #177, #119, #51 ) ;
#133 = DIRECTION ( 'NONE',  ( 1.025183012878513804E-16, 1.000000000000000000, 8.326672684688671588E-17 ) ) ;
#134 = DIRECTION ( 'NONE',  ( 1.025183012878513804E-16, 1.000000000000000000, 8.326672684688671588E-17 ) ) ;
#135 = LOCAL_TIME ( 10, 59, 0.000000000000000000, #14 ) ;
#136 = EDGE_CURVE ( 'Defeature ausgeführt1_1+Defeature ausgeführt1_0+Defeature ausgeführt1_0+Defeature ausgeführt1_0', #58, #25, #178, .T. ) ;
#137 = VERTEX_POINT ( 'NONE', #57 ) ;
#138 = EDGE_LOOP ( 'NONE', ( #47, #167 ) ) ;
#139 = AXIS2_PLACEMENT_3D ( 'NONE', #10, #6, #163 ) ;
#140 = CARTESIAN_POINT ( 'NONE',  ( 1.142891154401539853E-15, 14.99999999999996447, -2.500000000000000000 ) ) ;
#141 = EDGE_CURVE ( 'Defeature ausgeführt1_2+Defeature ausgeführt1_1+Defeature ausgeführt1_1+Defeature ausgeführt1_1', #162, #46, #13, .T. ) ;
#142 = EDGE_LOOP ( 'NONE', ( #65, #86, #202, #109 ) ) ;
#143 = PERSON_AND_ORGANIZATION ( #166, #156 ) ;
#144 = ORIENTED_EDGE ( 'NONE', *, *, #199, .T. ) ;
#145 = DATE_AND_TIME ( #90, #41 ) ;
#146 = APPROVAL_PERSON_ORGANIZATION ( #172, #61, #246 ) ;
#147 = DIRECTION ( 'NONE',  ( 1.025183012878513804E-16, 1.000000000000000000, 1.110223024625156540E-16 ) ) ;
#148 = APPROVAL_ROLE ( '' ) ;
#149 = EDGE_CURVE ( 'Defeature ausgeführt1_3+Defeature ausgeführt1_2+Defeature ausgeführt1_2+Defeature ausgeführt1_2', #137, #26, #200, .T. ) ;
#150 = APPLICATION_CONTEXT ( 'configuration controlled 3d designs of mechanical parts and assemblies' ) ;
#151 = DIRECTION ( 'NONE',  ( 1.025183012878513804E-16, 1.000000000000000000, 8.326672684688671588E-17 ) ) ;
#152 = PERSON_AND_ORGANIZATION ( #166, #156 ) ;
#153 = CARTESIAN_POINT ( 'NONE',  ( -2.500000000000000444, 14.99999999999996447, 1.762072075233247509E-15 ) ) ;
#154 = DATE_AND_TIME ( #252, #115 ) ;
#155 = FACE_OUTER_BOUND ( 'NONE', #32, .T. ) ;
#156 = ORGANIZATION ( 'UNSPECIFIED', 'UNSPECIFIED', '' ) ;
#157 = CARTESIAN_POINT ( 'NONE',  ( 1.234628010448716380E-15, 14.99999999999996447, 1.717376241217039221E-15 ) ) ;
#158 = APPROVAL ( #16, 'UNSPECIFIED' ) ;
#159 = CIRCLE ( 'NONE', #220, 1.500000000000003109 ) ;
#160 = AXIS2_PLACEMENT_3D ( 'NONE', #12, #133, #71 ) ;
#161 =( GEOMETRIC_REPRESENTATION_CONTEXT ( 3 ) GLOBAL_UNCERTAINTY_ASSIGNED_CONTEXT ( ( #28 ) ) GLOBAL_UNIT_ASSIGNED_CONTEXT ( ( #73, #91, #88 ) ) REPRESENTATION_CONTEXT ( 'NONE', 'WORKASPACE' ) );
#162 = VERTEX_POINT ( 'NONE', #112 ) ;
#163 = DIRECTION ( 'NONE',  ( -3.669474241887057489E-17, 0.000000000000000000, -1.000000000000000000 ) ) ;
#164 = CIRCLE ( 'NONE', #120, 1.500000000000003109 ) ;
#165 = ORIENTED_EDGE ( 'NONE', *, *, #136, .T. ) ;
#166 = PERSON ( 'UNSPECIFIED', 'UNSPECIFIED', 'UNSPECIFIED', ('UNSPECIFIED'), ('UNSPECIFIED'), ('UNSPECIFIED') ) ;
#167 = ORIENTED_EDGE ( 'NONE', *, *, #149, .F. ) ;
#168 = APPLICATION_PROTOCOL_DEFINITION ( 'international standard', 'config_control_design', 1994, #179 ) ;
#169 = ORIENTED_EDGE ( 'NONE', *, *, #59, .T. ) ;
#170 = PERSON_AND_ORGANIZATION ( #166, #156 ) ;
#171 = DIRECTION ( 'NONE',  ( 3.669474241887051943E-17, -1.110223024625156540E-16, 1.000000000000000000 ) ) ;
#172 = PERSON_AND_ORGANIZATION ( #166, #156 ) ;
#173 = CARTESIAN_POINT ( 'NONE',  ( 2.552075625522471103E-15, 28.74568690095842172, -2.499999999999997335 ) ) ;
#174 = COORDINATED_UNIVERSAL_TIME_OFFSET ( 1, 0, .AHEAD. ) ;
#175 = CARTESIAN_POINT ( 'NONE',  ( 1.747219516887973417E-15, 19.99999999999996447, 2.133709875451473121E-15 ) ) ;
#176 = PRODUCT_DEFINITION ( 'UNKNOWN', '', #193, #8 ) ;
#177 = CARTESIAN_POINT ( 'NONE',  ( -3.031465088690546837E-16, -3.642919299551294898E-14, 4.683753385137383099E-16 ) ) ;
#178 = CIRCLE ( 'NONE', #160, 2.499999999999999556 ) ;
#179 = APPLICATION_CONTEXT ( 'configuration controlled 3d designs of mechanical parts and assemblies' ) ;
#180 = CARTESIAN_POINT ( 'NONE',  ( 2.643812481569647630E-15, 28.74568690095842172, 2.861934597721975897E-15 ) ) ;
#181 = AXIS2_PLACEMENT_3D ( 'NONE', #235, #192, #19 ) ;
#182 = FACE_OUTER_BOUND ( 'NONE', #87, .T. ) ;
#183 = DIRECTION ( 'NONE',  ( -3.669474241887055641E-17, 0.000000000000000000, -1.000000000000000000 ) ) ;
#184 = ORIENTED_EDGE ( 'NONE', *, *, #78, .T. ) ;
#185 = ORIENTED_EDGE ( 'NONE', *, *, #199, .F. ) ;
#186 = CYLINDRICAL_SURFACE ( 'NONE', #139, 2.500000000000000444 ) ;
#187 = ADVANCED_FACE ( 'Defeature ausgeführt1_3', ( #189 ), #210, .T. ) ;
#188 = LOCAL_TIME ( 10, 59, 0.000000000000000000, #11 ) ;
#189 = FACE_OUTER_BOUND ( 'NONE', #142, .T. ) ;
#190 = SECURITY_CLASSIFICATION_LEVEL ( 'unclassified' ) ;
#191 = DIRECTION ( 'NONE',  ( -3.669474241887045780E-17, 0.000000000000000000, -1.000000000000000000 ) ) ;
#192 = DIRECTION ( 'NONE',  ( 1.025183012878513804E-16, 1.000000000000000000, 8.326672684688671588E-17 ) ) ;
#193 = PRODUCT_DEFINITION_FORMATION_WITH_SPECIFIED_SOURCE ( 'ANY', '', #234, .NOT_KNOWN. ) ;
#194 = CC_DESIGN_DATE_AND_TIME_ASSIGNMENT ( #113, #52, ( #23 ) ) ;
#195 = PLANE ( 'NONE',  #56 ) ;
#196 = LOCAL_TIME ( 10, 59, 0.000000000000000000, #70 ) ;
#197 = PRODUCT_RELATED_PRODUCT_CATEGORY ( 'detail', '', ( #234 ) ) ;
#198 = CARTESIAN_POINT ( 'NONE',  ( 2.515157575325850114E-15, 28.74568690095842172, 1.500000000000005329 ) ) ;
#199 = EDGE_CURVE ( 'Defeature ausgeführt1_2+Defeature ausgeführt1_1+Defeature ausgeführt1_1+Defeature ausgeführt1_1', #46, #162, #3, .T. ) ;
#200 = CIRCLE ( 'NONE', #99, 1.500000000000001776 ) ;
#201 = ORIENTED_EDGE ( 'NONE', *, *, #54, .T. ) ;
#202 = ORIENTED_EDGE ( 'NONE', *, *, #43, .T. ) ;
#203 = SHAPE_DEFINITION_REPRESENTATION ( #95, #24 ) ;
#204 = ORIENTED_EDGE ( 'NONE', *, *, #141, .T. ) ;
#205 = DATE_TIME_ROLE ( 'creation_date' ) ;
#206 = AXIS2_PLACEMENT_3D ( 'NONE', #131, #98, #77 ) ;
#207 = ADVANCED_FACE ( 'Defeature ausgeführt1_4', ( #76 ), #55, .T. ) ;
#208 = FACE_OUTER_BOUND ( 'NONE', #245, .T. ) ;
#209 = CARTESIAN_POINT ( 'NONE',  ( 0.000000000000000000, 0.000000000000000000, 0.000000000000000000 ) ) ;
#210 = CYLINDRICAL_SURFACE ( 'NONE', #102, 1.500000000000002442 ) ;
#211 = DATE_AND_TIME ( #33, #135 ) ;
#212 = APPROVAL_DATE_TIME ( #96, #61 ) ;
#213 = DIRECTION ( 'NONE',  ( -3.669474241887055641E-17, 0.000000000000000000, -1.000000000000000000 ) ) ;
#214 = CARTESIAN_POINT ( 'NONE',  ( -1.064020699830144002E-15, 19.99999999999996092, 2.133709875451473121E-15 ) ) ;
#215 = CC_DESIGN_APPROVAL ( #93, ( #193 ) ) ;
#216 = DIRECTION ( 'NONE',  ( -3.669474241887056873E-17, 0.000000000000000000, -1.000000000000000000 ) ) ;
#217 = EDGE_CURVE ( 'NONE', #25, #46, #42, .T. ) ;
#218 = AXIS2_PLACEMENT_3D ( 'NONE', #214, #147, #40 ) ;
#219 = ORIENTED_EDGE ( 'NONE', *, *, #239, .T. ) ;
#220 = AXIS2_PLACEMENT_3D ( 'NONE', #48, #62, #183 ) ;
#221 = APPROVAL_PERSON_ORGANIZATION ( #143, #158, #111 ) ;
#222 = LINE ( 'NONE', #255, #126 ) ;
#223 = EDGE_LOOP ( 'NONE', ( #184, #29 ) ) ;
#224 = PERSON_AND_ORGANIZATION ( #166, #156 ) ;
#225 = DIRECTION ( 'NONE',  ( 1.025183012878513804E-16, 1.000000000000000000, 8.326672684688671588E-17 ) ) ;
#226 = DIRECTION ( 'NONE',  ( 1.025183012878513804E-16, 1.000000000000000000, 8.326672684688671588E-17 ) ) ;
#227 = PERSON_AND_ORGANIZATION ( #166, #156 ) ;
#228 = CARTESIAN_POINT ( 'NONE',  ( 1.234628010448716380E-15, 14.99999999999996447, 1.717376241217039221E-15 ) ) ;
#229 = ADVANCED_FACE ( 'Defeature ausgeführt1_3', ( #15 ), #94, .T. ) ;
#230 = DIRECTION ( 'NONE',  ( -1.025183012878513804E-16, -1.000000000000000000, -1.110223024625156540E-16 ) ) ;
#231 = APPROVAL_DATE_TIME ( #154, #158 ) ;
#232 = VECTOR ( 'NONE', #64, 1000.000000000000000 ) ;
#233 = DIRECTION ( 'NONE',  ( 1.025183012878513804E-16, 1.000000000000000000, 1.110223024625156540E-16 ) ) ;
#234 = PRODUCT ( 'INGUN_12681', 'INGUN_12681', '', ( #92 ) ) ;
#235 = CARTESIAN_POINT ( 'NONE',  ( 2.643812481569647630E-15, 28.74568690095842172, 2.861934597721975897E-15 ) ) ;
#236 = CLOSED_SHELL ( 'NONE', ( #229, #2, #121, #27, #74, #187, #207 ) ) ;
#237 = ORIENTED_EDGE ( 'NONE', *, *, #136, .F. ) ;
#238 = CIRCLE ( 'NONE', #132, 2.499999999999999556 ) ;
#239 = EDGE_CURVE ( 'Defeature ausgeführt1_1+Defeature ausgeführt1_0+Defeature ausgeführt1_0+Defeature ausgeführt1_0', #25, #58, #238, .T. ) ;
#240 = CYLINDRICAL_SURFACE ( 'NONE', #79, 2.500000000000000444 ) ;
#241 = LINE ( 'NONE', #83, #232 ) ;
#242 = VERTEX_POINT ( 'NONE', #251 ) ;
#243 = CC_DESIGN_PERSON_AND_ORGANIZATION_ASSIGNMENT ( #224, #116, ( #193 ) ) ;
#244 = CALENDAR_DATE ( 2023, 27, 4 ) ;
#245 = EDGE_LOOP ( 'NONE', ( #67, #165, #247, #45 ) ) ;
#246 = APPROVAL_ROLE ( '' ) ;
#247 = ORIENTED_EDGE ( 'NONE', *, *, #217, .T. ) ;
#248 = APPLICATION_PROTOCOL_DEFINITION ( 'international standard', 'config_control_design', 1994, #150 ) ;
#249 = CARTESIAN_POINT ( 'NONE',  ( 2.513159070501677047E-16, -3.663735981263016583E-14, 2.500000000000000000 ) ) ;
#250 = PERSON_AND_ORGANIZATION_ROLE ( 'classification_officer' ) ;
#251 = CARTESIAN_POINT ( 'NONE',  ( 1.362268857424547185E-15, 19.99999999999996447, 1.500000000000005551 ) ) ;
#252 = CALENDAR_DATE ( 2023, 27, 4 ) ;
#253 = CARTESIAN_POINT ( 'NONE',  ( -6.651740179424178334E-16, -3.642919299551294898E-14, 4.683753385137383099E-16 ) ) ;
#254 = CIRCLE ( 'NONE', #63, 1.500000000000001776 ) ;
#255 = CARTESIAN_POINT ( 'NONE',  ( 2.429387637829985497E-15, 28.74568690095842172, 2.500000000000003553 ) ) ;
ENDSEC;
END-ISO-10303-21;
