ISO-10303-21;
HEADER;
FILE_DESCRIPTION (( 'STEP AP214' ),
    '1' );
FILE_NAME ('INGUN_18742.STEP',
    '2024-07-22T12:25:54',
    ( '' ),
    ( '' ),
    'SwSTEP 2.0',
    'SolidWorks 2021',
    '' );
FILE_SCHEMA (( 'AUTOMOTIVE_DESIGN' ));
ENDSEC;

DATA;
#1 = CARTESIAN_POINT ( 'NONE',  ( 0.000000000000000000, 16.00000000000000000, 0.000000000000000000 ) ) ;
#2 = APPLICATION_CONTEXT ( 'automotive_design' ) ;
#3 = DIRECTION ( 'NONE',  ( 0.000000000000000000, 1.000000000000000000, 0.000000000000000000 ) ) ;
#4 = DIRECTION ( 'NONE',  ( 0.000000000000000000, 0.000000000000000000, 1.000000000000000000 ) ) ;
#5 = ADVANCED_FACE ( 'NONE', ( #272, #42 ), #278, .T. ) ;
#6 = EDGE_CURVE ( 'NONE', #171, #113, #182, .T. ) ;
#7 = VECTOR ( 'NONE', #226, 1000.000000000000227 ) ;
#8 = ORIENTED_EDGE ( 'NONE', *, *, #188, .T. ) ;
#9 = DIRECTION ( 'NONE',  ( 1.000000000000000000, 0.000000000000000000, 0.000000000000000000 ) ) ;
#10 = DIRECTION ( 'NONE',  ( 0.000000000000000000, 0.000000000000000000, 1.000000000000000000 ) ) ;
#11 = STYLED_ITEM ( 'NONE', ( #190 ), #271 ) ;
#12 = LINE ( 'NONE', #143, #91 ) ;
#13 = EDGE_CURVE ( 'NONE', #216, #77, #32, .T. ) ;
#14 = CIRCLE ( 'NONE', #196, 3.000000000000024425 ) ;
#15 = CARTESIAN_POINT ( 'NONE',  ( 3.673940397442089450E-16, 0.1999999999999987899, -3.000000000000024425 ) ) ;
#16 = CONICAL_SURFACE ( 'NONE', #192, 1.450000000000011946, 0.7853981633974549403 ) ;
#17 = CARTESIAN_POINT ( 'NONE',  ( 0.000000000000000000, 0.1999999999999987899, 0.000000000000000000 ) ) ;
#18 = CIRCLE ( 'NONE', #153, 1.450000000000011946 ) ;
#19 = CARTESIAN_POINT ( 'NONE',  ( 0.000000000000000000, 0.1999999999999987899, 0.000000000000000000 ) ) ;
#20 = FACE_OUTER_BOUND ( 'NONE', #189, .T. ) ;
#21 = ORIENTED_EDGE ( 'NONE', *, *, #13, .F. ) ;
#22 = DIRECTION ( 'NONE',  ( 0.000000000000000000, 0.000000000000000000, 1.000000000000000000 ) ) ;
#23 = CARTESIAN_POINT ( 'NONE',  ( 0.000000000000000000, 16.00000000000000000, 0.000000000000000000 ) ) ;
#24 = ORIENTED_EDGE ( 'NONE', *, *, #255, .T. ) ;
#25 = DIRECTION ( 'NONE',  ( 0.000000000000000000, -1.000000000000000000, 0.000000000000000000 ) ) ;
#26 = SURFACE_STYLE_FILL_AREA ( #212 ) ;
#27 = ADVANCED_FACE ( 'NONE', ( #156 ), #16, .F. ) ;
#28 = ADVANCED_FACE ( 'NONE', ( #294 ), #203, .F. ) ;
#29 = MANIFOLD_SOLID_BREP ( 'Fase2', #49 ) ;
#30 = AXIS2_PLACEMENT_3D ( 'NONE', #95, #296, #119 ) ;
#31 = ORIENTED_EDGE ( 'NONE', *, *, #13, .T. ) ;
#32 = CIRCLE ( 'NONE', #223, 1.950000000000020162 ) ;
#33 = ORIENTED_EDGE ( 'NONE', *, *, #276, .T. ) ;
#34 = CONICAL_SURFACE ( 'NONE', #214, 3.000000000000024425, 0.7853981633974537191 ) ;
#35 = FACE_OUTER_BOUND ( 'NONE', #114, .T. ) ;
#36 = EDGE_CURVE ( 'NONE', #84, #70, #62, .T. ) ;
#37 = MECHANICAL_DESIGN_GEOMETRIC_PRESENTATION_REPRESENTATION (  '', ( #11 ), #205 ) ;
#38 = CYLINDRICAL_SURFACE ( 'NONE', #120, 3.000000000000024425 ) ;
#39 = DIRECTION ( 'NONE',  ( -0.000000000000000000, -1.000000000000000000, -0.000000000000000000 ) ) ;
#40 = ORIENTED_EDGE ( 'NONE', *, *, #255, .F. ) ;
#41 = CARTESIAN_POINT ( 'NONE',  ( 0.000000000000000000, 20.00000000000000000, 0.000000000000000000 ) ) ;
#42 = FACE_OUTER_BOUND ( 'NONE', #108, .T. ) ;
#43 = MECHANICAL_DESIGN_GEOMETRIC_PRESENTATION_REPRESENTATION (  '', ( #194 ), #208 ) ;
#44 = LINE ( 'NONE', #207, #308 ) ;
#45 = VERTEX_POINT ( 'NONE', #142 ) ;
#46 = PRESENTATION_LAYER_ASSIGNMENT (  '', '', ( #194 ) ) ;
#47 = DIRECTION ( 'NONE',  ( 0.000000000000000000, 0.7071067811865406894, 0.7071067811865543451 ) ) ;
#48 = DIRECTION ( 'NONE',  ( 0.000000000000000000, 0.000000000000000000, 1.000000000000000000 ) ) ;
#49 = CLOSED_SHELL ( 'NONE', ( #27, #165, #240, #139, #82, #5, #58, #28, #221, #197, #90 ) ) ;
#50 =( NAMED_UNIT ( * ) PLANE_ANGLE_UNIT ( ) SI_UNIT ( $, .RADIAN. ) );
#51 = PRODUCT ( 'INGUN_18742', 'INGUN_18742', '', ( #162 ) ) ;
#52 = DIRECTION ( 'NONE',  ( 0.000000000000000000, 0.000000000000000000, 1.000000000000000000 ) ) ;
#53 = UNCERTAINTY_MEASURE_WITH_UNIT (LENGTH_MEASURE( 1.000000000000000082E-05 ), #147, 'distance_accuracy_value', 'NONE');
#54 = DIRECTION ( 'NONE',  ( 0.000000000000000000, 0.000000000000000000, 1.000000000000000000 ) ) ;
#55 = ORIENTED_EDGE ( 'NONE', *, *, #310, .T. ) ;
#56 = LINE ( 'NONE', #79, #66 ) ;
#57 = AXIS2_PLACEMENT_3D ( 'NONE', #1, #3, #150 ) ;
#58 = ADVANCED_FACE ( 'NONE', ( #118 ), #65, .F. ) ;
#59 = VERTEX_POINT ( 'NONE', #169 ) ;
#60 = FILL_AREA_STYLE_COLOUR ( '', #235 ) ;
#61 = ORIENTED_EDGE ( 'NONE', *, *, #188, .F. ) ;
#62 = CIRCLE ( 'NONE', #106, 3.000000000000024425 ) ;
#63 = ORIENTED_EDGE ( 'NONE', *, *, #299, .T. ) ;
#64 = SURFACE_STYLE_USAGE ( .BOTH. , #277 ) ;
#65 = PLANE ( 'NONE',  #112 ) ;
#66 = VECTOR ( 'NONE', #25, 1000.000000000000000 ) ;
#67 = ORIENTED_EDGE ( 'NONE', *, *, #6, .F. ) ;
#68 = EDGE_CURVE ( 'NONE', #45, #185, #290, .T. ) ;
#69 = DIRECTION ( 'NONE',  ( 0.000000000000000000, 0.000000000000000000, -1.000000000000000000 ) ) ;
#70 = VERTEX_POINT ( 'NONE', #219 ) ;
#71 = PRODUCT_DEFINITION_CONTEXT ( 'detailed design', #116, 'design' ) ;
#72 = DIRECTION ( 'NONE',  ( 0.000000000000000000, 1.000000000000000000, 0.000000000000000000 ) ) ;
#73 = DIRECTION ( 'NONE',  ( 0.000000000000000000, 1.000000000000000000, 0.000000000000000000 ) ) ;
#74 = DIRECTION ( 'NONE',  ( 0.000000000000000000, 1.000000000000000000, 0.000000000000000000 ) ) ;
#75 = ORIENTED_EDGE ( 'NONE', *, *, #287, .T. ) ;
#76 = DIRECTION ( 'NONE',  ( 0.000000000000000000, 1.000000000000000000, 0.000000000000000000 ) ) ;
#77 = VERTEX_POINT ( 'NONE', #224 ) ;
#78 = ORIENTED_EDGE ( 'NONE', *, *, #164, .T. ) ;
#79 = CARTESIAN_POINT ( 'NONE',  ( 0.000000000000000000, 20.00000000000000000, -3.000000000000024425 ) ) ;
#80 = CARTESIAN_POINT ( 'NONE',  ( 0.000000000000000000, 19.50000000000000355, 0.000000000000000000 ) ) ;
#81 = CARTESIAN_POINT ( 'NONE',  ( 0.000000000000000000, 16.00000000000000000, 0.000000000000000000 ) ) ;
#82 = ADVANCED_FACE ( 'NONE', ( #35 ), #38, .T. ) ;
#83 = AXIS2_PLACEMENT_3D ( 'NONE', #92, #266, #243 ) ;
#84 = VERTEX_POINT ( 'NONE', #267 ) ;
#85 = PLANE ( 'NONE',  #289 ) ;
#86 = VECTOR ( 'NONE', #302, 1000.000000000000341 ) ;
#87 = EDGE_CURVE ( 'NONE', #59, #185, #12, .T. ) ;
#88 = ORIENTED_EDGE ( 'NONE', *, *, #87, .T. ) ;
#89 = APPLICATION_PROTOCOL_DEFINITION ( 'draft international standard', 'automotive_design', 1998, #116 ) ;
#90 = ADVANCED_FACE ( 'NONE', ( #123 ), #238, .F. ) ;
#91 = VECTOR ( 'NONE', #144, 1000.000000000000000 ) ;
#92 = CARTESIAN_POINT ( 'NONE',  ( 0.000000000000000000, 19.50000000000000355, 0.000000000000000000 ) ) ;
#93 = AXIS2_PLACEMENT_3D ( 'NONE', #158, #148, #250 ) ;
#94 = CARTESIAN_POINT ( 'NONE',  ( 0.000000000000000000, 20.00000000000000000, 0.000000000000000000 ) ) ;
#95 = CARTESIAN_POINT ( 'NONE',  ( 0.000000000000000000, 20.00000000000000000, 0.000000000000000000 ) ) ;
#96 = ORIENTED_EDGE ( 'NONE', *, *, #187, .T. ) ;
#97 = CIRCLE ( 'NONE', #282, 1.450000000000011946 ) ;
#98 = EDGE_LOOP ( 'NONE', ( #306, #8 ) ) ;
#99 =( NAMED_UNIT ( * ) SI_UNIT ( $, .STERADIAN. ) SOLID_ANGLE_UNIT ( ) );
#100 = PRODUCT_DEFINITION_FORMATION_WITH_SPECIFIED_SOURCE ( 'ANY', '', #51, .NOT_KNOWN. ) ;
#101 = FILL_AREA_STYLE ('',( #206 ) ) ;
#102 = EDGE_CURVE ( 'NONE', #202, #264, #154, .T. ) ;
#103 = CARTESIAN_POINT ( 'NONE',  ( 3.673940397442089450E-16, 20.00000000000000000, 3.000000000000024425 ) ) ;
#104 = ORIENTED_EDGE ( 'NONE', *, *, #127, .F. ) ;
#105 = CARTESIAN_POINT ( 'NONE',  ( 0.000000000000000000, 19.50000000000000355, 1.450000000000011946 ) ) ;
#106 = AXIS2_PLACEMENT_3D ( 'NONE', #17, #314, #10 ) ;
#107 = DIRECTION ( 'NONE',  ( 0.000000000000000000, -1.000000000000000000, 0.000000000000000000 ) ) ;
#108 = EDGE_LOOP ( 'NONE', ( #155, #78 ) ) ;
#109 = CARTESIAN_POINT ( 'NONE',  ( 1.775737858763662163E-16, 16.00000000000000000, -1.449999999999999956 ) ) ;
#110 = AXIS2_PLACEMENT_3D ( 'NONE', #178, #73, #269 ) ;
#111 = VECTOR ( 'NONE', #251, 1000.000000000000341 ) ;
#112 = AXIS2_PLACEMENT_3D ( 'NONE', #222, #270, #312 ) ;
#113 = VERTEX_POINT ( 'NONE', #198 ) ;
#114 = EDGE_LOOP ( 'NONE', ( #318, #280, #75, #309 ) ) ;
#115 = PRODUCT_RELATED_PRODUCT_CATEGORY ( 'part', '', ( #51 ) ) ;
#116 = APPLICATION_CONTEXT ( 'automotive_design' ) ;
#117 = EDGE_CURVE ( 'NONE', #113, #70, #245, .T. ) ;
#118 = FACE_OUTER_BOUND ( 'NONE', #98, .T. ) ;
#119 = DIRECTION ( 'NONE',  ( 0.000000000000000000, 0.000000000000000000, 1.000000000000000000 ) ) ;
#120 = AXIS2_PLACEMENT_3D ( 'NONE', #41, #291, #69 ) ;
#121 = CARTESIAN_POINT ( 'NONE',  ( 0.000000000000000000, 20.00000000000000000, 0.000000000000000000 ) ) ;
#122 = FACE_OUTER_BOUND ( 'NONE', #191, .T. ) ;
#123 = FACE_OUTER_BOUND ( 'NONE', #285, .T. ) ;
#124 = ORIENTED_EDGE ( 'NONE', *, *, #36, .T. ) ;
#125 = AXIS2_PLACEMENT_3D ( 'NONE', #200, #74, #131 ) ;
#126 = FACE_OUTER_BOUND ( 'NONE', #253, .T. ) ;
#127 = EDGE_CURVE ( 'NONE', #77, #216, #138, .T. ) ;
#128 = ORIENTED_EDGE ( 'NONE', *, *, #164, .F. ) ;
#129 = ORIENTED_EDGE ( 'NONE', *, *, #68, .T. ) ;
#130 = DIRECTION ( 'NONE',  ( 0.000000000000000000, 1.000000000000000000, 0.000000000000000000 ) ) ;
#131 = DIRECTION ( 'NONE',  ( 0.000000000000000000, 0.000000000000000000, 1.000000000000000000 ) ) ;
#132 = PRODUCT_DEFINITION_SHAPE ( 'NONE', 'NONE',  #151 ) ;
#133 = DIRECTION ( 'NONE',  ( 0.000000000000000000, 1.000000000000000000, 0.000000000000000000 ) ) ;
#134 = DIRECTION ( 'NONE',  ( -0.000000000000000000, -1.000000000000000000, -0.000000000000000000 ) ) ;
#135 =( GEOMETRIC_REPRESENTATION_CONTEXT ( 3 ) GLOBAL_UNCERTAINTY_ASSIGNED_CONTEXT ( ( #244 ) ) GLOBAL_UNIT_ASSIGNED_CONTEXT ( ( #279, #50, #99 ) ) REPRESENTATION_CONTEXT ( 'NONE', 'WORKASPACE' ) );
#136 = ORIENTED_EDGE ( 'NONE', *, *, #220, .T. ) ;
#137 =( LENGTH_UNIT ( ) NAMED_UNIT ( * ) SI_UNIT ( .MILLI., .METRE. ) );
#138 = CIRCLE ( 'NONE', #303, 1.950000000000020162 ) ;
#139 = ADVANCED_FACE ( 'NONE', ( #315 ), #175, .T. ) ;
#140 = EDGE_LOOP ( 'NONE', ( #211, #96, #104, #40 ) ) ;
#141 = CIRCLE ( 'NONE', #295, 2.800000000000021583 ) ;
#142 = CARTESIAN_POINT ( 'NONE',  ( 1.775737858763662163E-16, 19.50000000000000355, -1.449999999999999956 ) ) ;
#143 = CARTESIAN_POINT ( 'NONE',  ( 0.000000000000000000, 16.00000000000000000, 1.450000000000011946 ) ) ;
#144 = DIRECTION ( 'NONE',  ( 0.000000000000000000, 1.000000000000000000, 0.000000000000000000 ) ) ;
#145 = DIRECTION ( 'NONE',  ( 0.000000000000000000, 0.000000000000000000, -1.000000000000000000 ) ) ;
#146 = ORIENTED_EDGE ( 'NONE', *, *, #287, .F. ) ;
#147 =( LENGTH_UNIT ( ) NAMED_UNIT ( * ) SI_UNIT ( .MILLI., .METRE. ) );
#148 = DIRECTION ( 'NONE',  ( -0.000000000000000000, -1.000000000000000000, -0.000000000000000000 ) ) ;
#149 = ORIENTED_EDGE ( 'NONE', *, *, #117, .T. ) ;
#150 = DIRECTION ( 'NONE',  ( 0.000000000000000000, 0.000000000000000000, 1.000000000000000000 ) ) ;
#151 = PRODUCT_DEFINITION ( 'UNKNOWN', '', #100, #71 ) ;
#152 = DIRECTION ( 'NONE',  ( 0.000000000000000000, 1.000000000000000000, 0.000000000000000000 ) ) ;
#153 = AXIS2_PLACEMENT_3D ( 'NONE', #275, #305, #184 ) ;
#154 = CIRCLE ( 'NONE', #30, 3.000000000000024425 ) ;
#155 = ORIENTED_EDGE ( 'NONE', *, *, #102, .T. ) ;
#156 = FACE_OUTER_BOUND ( 'NONE', #140, .T. ) ;
#157 = CARTESIAN_POINT ( 'NONE',  ( 0.000000000000000000, 0.000000000000000000, 0.000000000000000000 ) ) ;
#158 = CARTESIAN_POINT ( 'NONE',  ( 0.000000000000000000, 0.000000000000000000, 0.000000000000000000 ) ) ;
#159 = DIRECTION ( 'NONE',  ( 0.000000000000000000, 1.000000000000000000, 0.000000000000000000 ) ) ;
#160 = AXIS2_PLACEMENT_3D ( 'NONE', #210, #300, #22 ) ;
#161 = CARTESIAN_POINT ( 'NONE',  ( 0.000000000000000000, 0.1999999999999987899, 3.000000000000024425 ) ) ;
#162 = PRODUCT_CONTEXT ( 'NONE', #2, 'mechanical' ) ;
#163 = EDGE_LOOP ( 'NONE', ( #225, #31 ) ) ;
#164 = EDGE_CURVE ( 'NONE', #264, #202, #14, .T. ) ;
#165 = ADVANCED_FACE ( 'NONE', ( #122 ), #227, .T. ) ;
#166 = ORIENTED_EDGE ( 'NONE', *, *, #241, .F. ) ;
#167 = ORIENTED_EDGE ( 'NONE', *, *, #292, .T. ) ;
#168 = PRESENTATION_STYLE_ASSIGNMENT (( #64 ) ) ;
#169 = CARTESIAN_POINT ( 'NONE',  ( 0.000000000000000000, 16.00000000000000000, 1.450000000000011946 ) ) ;
#170 = DIRECTION ( 'NONE',  ( 0.000000000000000000, 0.000000000000000000, 1.000000000000000000 ) ) ;
#171 = VERTEX_POINT ( 'NONE', #307 ) ;
#172 =( NAMED_UNIT ( * ) PLANE_ANGLE_UNIT ( ) SI_UNIT ( $, .RADIAN. ) );
#173 = CARTESIAN_POINT ( 'NONE',  ( 0.000000000000000000, 20.00000000000000000, 0.000000000000000000 ) ) ;
#174 = EDGE_LOOP ( 'NONE', ( #193, #166, #88, #33 ) ) ;
#175 = CYLINDRICAL_SURFACE ( 'NONE', #313, 3.000000000000024425 ) ;
#176 = VERTEX_POINT ( 'NONE', #109 ) ;
#177 = CARTESIAN_POINT ( 'NONE',  ( 0.000000000000000000, 20.00000000000000000, -2.999999999999999112 ) ) ;
#178 = CARTESIAN_POINT ( 'NONE',  ( 0.000000000000000000, 16.00000000000000000, 0.000000000000000000 ) ) ;
#179 = DIRECTION ( 'NONE',  ( 0.000000000000000000, 0.000000000000000000, 1.000000000000000000 ) ) ;
#180 = SURFACE_STYLE_FILL_AREA ( #101 ) ;
#181 = DIRECTION ( 'NONE',  ( 0.000000000000000000, 1.000000000000000000, 0.000000000000000000 ) ) ;
#182 = CIRCLE ( 'NONE', #93, 2.800000000000021583 ) ;
#183 = ORIENTED_EDGE ( 'NONE', *, *, #117, .F. ) ;
#184 = DIRECTION ( 'NONE',  ( 0.000000000000000000, 0.000000000000000000, 1.000000000000000000 ) ) ;
#185 = VERTEX_POINT ( 'NONE', #186 ) ;
#186 = CARTESIAN_POINT ( 'NONE',  ( 0.000000000000000000, 19.50000000000000355, 1.450000000000011946 ) ) ;
#187 = EDGE_CURVE ( 'NONE', #45, #216, #273, .T. ) ;
#188 = EDGE_CURVE ( 'NONE', #113, #171, #141, .T. ) ;
#189 = EDGE_LOOP ( 'NONE', ( #247, #136, #129, #218 ) ) ;
#190 = PRESENTATION_STYLE_ASSIGNMENT (( #284 ) ) ;
#191 = EDGE_LOOP ( 'NONE', ( #61, #149, #236, #319 ) ) ;
#192 = AXIS2_PLACEMENT_3D ( 'NONE', #80, #152, #301 ) ;
#193 = ORIENTED_EDGE ( 'NONE', *, *, #220, .F. ) ;
#194 = STYLED_ITEM ( 'NONE', ( #168 ), #29 ) ;
#195 =( NAMED_UNIT ( * ) SI_UNIT ( $, .STERADIAN. ) SOLID_ANGLE_UNIT ( ) );
#196 = AXIS2_PLACEMENT_3D ( 'NONE', #293, #72, #268 ) ;
#197 = ADVANCED_FACE ( 'NONE', ( #233 ), #34, .T. ) ;
#198 = CARTESIAN_POINT ( 'NONE',  ( 3.551475717527352429E-16, 0.000000000000000000, -2.799999999999998046 ) ) ;
#199 = DIRECTION ( 'NONE',  ( 0.000000000000000000, -1.000000000000000000, 0.000000000000000000 ) ) ;
#200 = CARTESIAN_POINT ( 'NONE',  ( 0.000000000000000000, 0.1999999999999987899, 0.000000000000000000 ) ) ;
#201 = VECTOR ( 'NONE', #47, 1000.000000000000227 ) ;
#202 = VERTEX_POINT ( 'NONE', #177 ) ;
#203 = CYLINDRICAL_SURFACE ( 'NONE', #110, 1.450000000000011946 ) ;
#204 = LINE ( 'NONE', #105, #111 ) ;
#205 =( GEOMETRIC_REPRESENTATION_CONTEXT ( 3 ) GLOBAL_UNCERTAINTY_ASSIGNED_CONTEXT ( ( #248 ) ) GLOBAL_UNIT_ASSIGNED_CONTEXT ( ( #137, #217, #286 ) ) REPRESENTATION_CONTEXT ( 'NONE', 'WORKASPACE' ) );
#206 = FILL_AREA_STYLE_COLOUR ( '', #288 ) ;
#207 = CARTESIAN_POINT ( 'NONE',  ( 1.775737858763676954E-16, 16.00000000000000000, -1.450000000000011946 ) ) ;
#208 =( GEOMETRIC_REPRESENTATION_CONTEXT ( 3 ) GLOBAL_UNCERTAINTY_ASSIGNED_CONTEXT ( ( #53 ) ) GLOBAL_UNIT_ASSIGNED_CONTEXT ( ( #147, #172, #195 ) ) REPRESENTATION_CONTEXT ( 'NONE', 'WORKASPACE' ) );
#209 = CARTESIAN_POINT ( 'NONE',  ( 2.388061258337363295E-16, 20.00000000000000000, -1.950000000000019940 ) ) ;
#210 = CARTESIAN_POINT ( 'NONE',  ( 0.000000000000000000, 16.00000000000000000, 0.000000000000000000 ) ) ;
#211 = ORIENTED_EDGE ( 'NONE', *, *, #68, .F. ) ;
#212 = FILL_AREA_STYLE ('',( #60 ) ) ;
#213 = EDGE_CURVE ( 'NONE', #70, #84, #239, .T. ) ;
#214 = AXIS2_PLACEMENT_3D ( 'NONE', #231, #254, #179 ) ;
#215 = AXIS2_PLACEMENT_3D ( 'NONE', #228, #130, #52 ) ;
#216 = VERTEX_POINT ( 'NONE', #209 ) ;
#217 =( NAMED_UNIT ( * ) PLANE_ANGLE_UNIT ( ) SI_UNIT ( $, .RADIAN. ) );
#218 = ORIENTED_EDGE ( 'NONE', *, *, #87, .F. ) ;
#219 = CARTESIAN_POINT ( 'NONE',  ( 0.000000000000000000, 0.1999999999999987899, -2.999999999999999112 ) ) ;
#220 = EDGE_CURVE ( 'NONE', #176, #45, #44, .T. ) ;
#221 = ADVANCED_FACE ( 'NONE', ( #126 ), #85, .T. ) ;
#222 = CARTESIAN_POINT ( 'NONE',  ( 0.000000000000000000, 0.000000000000000000, 0.000000000000000000 ) ) ;
#223 = AXIS2_PLACEMENT_3D ( 'NONE', #173, #230, #48 ) ;
#224 = CARTESIAN_POINT ( 'NONE',  ( 0.000000000000000000, 20.00000000000000000, 1.950000000000019940 ) ) ;
#225 = ORIENTED_EDGE ( 'NONE', *, *, #127, .T. ) ;
#226 = DIRECTION ( 'NONE',  ( 8.659560562355015442E-17, 0.7071067811865406894, -0.7071067811865543451 ) ) ;
#227 = CONICAL_SURFACE ( 'NONE', #125, 3.000000000000024425, 0.7853981633974537191 ) ;
#228 = CARTESIAN_POINT ( 'NONE',  ( 0.000000000000000000, 20.00000000000000000, 0.000000000000000000 ) ) ;
#229 = LINE ( 'NONE', #161, #201 ) ;
#230 = DIRECTION ( 'NONE',  ( -0.000000000000000000, -1.000000000000000000, -0.000000000000000000 ) ) ;
#231 = CARTESIAN_POINT ( 'NONE',  ( 0.000000000000000000, 0.1999999999999987899, 0.000000000000000000 ) ) ;
#232 = AXIS2_PLACEMENT_3D ( 'NONE', #237, #283, #9 ) ;
#233 = FACE_OUTER_BOUND ( 'NONE', #274, .T. ) ;
#234 = DIRECTION ( 'NONE',  ( 0.000000000000000000, 0.000000000000000000, 1.000000000000000000 ) ) ;
#235 = COLOUR_RGB ( '',0.2509803921568627416, 0.2509803921568627416, 0.2509803921568627416 ) ;
#236 = ORIENTED_EDGE ( 'NONE', *, *, #36, .F. ) ;
#237 = CARTESIAN_POINT ( 'NONE',  ( 0.000000000000000000, 0.000000000000000000, 0.000000000000000000 ) ) ;
#238 = CONICAL_SURFACE ( 'NONE', #83, 1.450000000000011946, 0.7853981633974549403 ) ;
#239 = CIRCLE ( 'NONE', #265, 3.000000000000024425 ) ;
#240 = ADVANCED_FACE ( 'NONE', ( #20 ), #257, .F. ) ;
#241 = EDGE_CURVE ( 'NONE', #59, #176, #252, .T. ) ;
#242 = PRESENTATION_LAYER_ASSIGNMENT (  '', '', ( #11 ) ) ;
#243 = DIRECTION ( 'NONE',  ( 0.000000000000000000, 0.000000000000000000, 1.000000000000000000 ) ) ;
#244 = UNCERTAINTY_MEASURE_WITH_UNIT (LENGTH_MEASURE( 1.000000000000000082E-05 ), #279, 'distance_accuracy_value', 'NONE');
#245 = LINE ( 'NONE', #15, #7 ) ;
#246 = DIRECTION ( 'NONE',  ( 0.000000000000000000, 0.000000000000000000, 1.000000000000000000 ) ) ;
#247 = ORIENTED_EDGE ( 'NONE', *, *, #299, .F. ) ;
#248 = UNCERTAINTY_MEASURE_WITH_UNIT (LENGTH_MEASURE( 1.000000000000000082E-05 ), #137, 'distance_accuracy_value', 'NONE');
#249 = DIRECTION ( 'NONE',  ( 0.000000000000000000, 1.000000000000000000, 0.000000000000000000 ) ) ;
#250 = DIRECTION ( 'NONE',  ( 0.000000000000000000, 0.000000000000000000, 1.000000000000000000 ) ) ;
#251 = DIRECTION ( 'NONE',  ( 0.000000000000000000, 0.7071067811865396902, 0.7071067811865552333 ) ) ;
#252 = CIRCLE ( 'NONE', #160, 1.450000000000011946 ) ;
#253 = EDGE_LOOP ( 'NONE', ( #261, #63 ) ) ;
#254 = DIRECTION ( 'NONE',  ( 0.000000000000000000, 1.000000000000000000, 0.000000000000000000 ) ) ;
#255 = EDGE_CURVE ( 'NONE', #185, #77, #204, .T. ) ;
#256 = DIRECTION ( 'NONE',  ( 0.000000000000000000, 0.000000000000000000, 1.000000000000000000 ) ) ;
#257 = CYLINDRICAL_SURFACE ( 'NONE', #57, 1.450000000000011946 ) ;
#258 = LINE ( 'NONE', #103, #317 ) ;
#259 = SHAPE_DEFINITION_REPRESENTATION ( #132, #271 ) ;
#260 = ORIENTED_EDGE ( 'NONE', *, *, #213, .F. ) ;
#261 = ORIENTED_EDGE ( 'NONE', *, *, #241, .T. ) ;
#262 = AXIS2_PLACEMENT_3D ( 'NONE', #316, #249, #170 ) ;
#263 = SURFACE_SIDE_STYLE ('',( #26 ) ) ;
#264 = VERTEX_POINT ( 'NONE', #320 ) ;
#265 = AXIS2_PLACEMENT_3D ( 'NONE', #19, #159, #54 ) ;
#266 = DIRECTION ( 'NONE',  ( 0.000000000000000000, 1.000000000000000000, 0.000000000000000000 ) ) ;
#267 = CARTESIAN_POINT ( 'NONE',  ( 3.673940397442058882E-16, 0.1999999999999987899, 2.999999999999999112 ) ) ;
#268 = DIRECTION ( 'NONE',  ( 0.000000000000000000, 0.000000000000000000, 1.000000000000000000 ) ) ;
#269 = DIRECTION ( 'NONE',  ( 0.000000000000000000, 0.000000000000000000, 1.000000000000000000 ) ) ;
#270 = DIRECTION ( 'NONE',  ( 0.000000000000000000, 1.000000000000000000, 0.000000000000000000 ) ) ;
#271 = ADVANCED_BREP_SHAPE_REPRESENTATION ( 'INGUN_18742', ( #29, #232 ), #135 ) ;
#272 = FACE_BOUND ( 'NONE', #163, .T. ) ;
#273 = LINE ( 'NONE', #281, #86 ) ;
#274 = EDGE_LOOP ( 'NONE', ( #183, #67, #167, #260 ) ) ;
#275 = CARTESIAN_POINT ( 'NONE',  ( 0.000000000000000000, 19.50000000000000355, 0.000000000000000000 ) ) ;
#276 = EDGE_CURVE ( 'NONE', #185, #45, #18, .T. ) ;
#277 = SURFACE_SIDE_STYLE ('',( #180 ) ) ;
#278 = PLANE ( 'NONE',  #215 ) ;
#279 =( LENGTH_UNIT ( ) NAMED_UNIT ( * ) SI_UNIT ( .MILLI., .METRE. ) );
#280 = ORIENTED_EDGE ( 'NONE', *, *, #102, .F. ) ;
#281 = CARTESIAN_POINT ( 'NONE',  ( 1.775737858763676954E-16, 19.50000000000000355, -1.450000000000011946 ) ) ;
#282 = AXIS2_PLACEMENT_3D ( 'NONE', #23, #133, #4 ) ;
#283 = DIRECTION ( 'NONE',  ( 0.000000000000000000, 0.000000000000000000, 1.000000000000000000 ) ) ;
#284 = SURFACE_STYLE_USAGE ( .BOTH. , #263 ) ;
#285 = EDGE_LOOP ( 'NONE', ( #298, #297, #24, #21 ) ) ;
#286 =( NAMED_UNIT ( * ) SI_UNIT ( $, .STERADIAN. ) SOLID_ANGLE_UNIT ( ) );
#287 = EDGE_CURVE ( 'NONE', #202, #70, #56, .T. ) ;
#288 = COLOUR_RGB ( '',0.2509803921568627416, 0.2509803921568627416, 0.2509803921568627416 ) ;
#289 = AXIS2_PLACEMENT_3D ( 'NONE', #81, #181, #234 ) ;
#290 = CIRCLE ( 'NONE', #262, 1.450000000000011946 ) ;
#291 = DIRECTION ( 'NONE',  ( 0.000000000000000000, -1.000000000000000000, 0.000000000000000000 ) ) ;
#292 = EDGE_CURVE ( 'NONE', #171, #84, #229, .T. ) ;
#293 = CARTESIAN_POINT ( 'NONE',  ( 0.000000000000000000, 20.00000000000000000, 0.000000000000000000 ) ) ;
#294 = FACE_OUTER_BOUND ( 'NONE', #174, .T. ) ;
#295 = AXIS2_PLACEMENT_3D ( 'NONE', #157, #134, #256 ) ;
#296 = DIRECTION ( 'NONE',  ( 0.000000000000000000, 1.000000000000000000, 0.000000000000000000 ) ) ;
#297 = ORIENTED_EDGE ( 'NONE', *, *, #276, .F. ) ;
#298 = ORIENTED_EDGE ( 'NONE', *, *, #187, .F. ) ;
#299 = EDGE_CURVE ( 'NONE', #176, #59, #97, .T. ) ;
#300 = DIRECTION ( 'NONE',  ( 0.000000000000000000, 1.000000000000000000, 0.000000000000000000 ) ) ;
#301 = DIRECTION ( 'NONE',  ( 0.000000000000000000, 0.000000000000000000, 1.000000000000000000 ) ) ;
#302 = DIRECTION ( 'NONE',  ( 8.659560562355025303E-17, 0.7071067811865396902, -0.7071067811865552333 ) ) ;
#303 = AXIS2_PLACEMENT_3D ( 'NONE', #121, #39, #246 ) ;
#304 = EDGE_LOOP ( 'NONE', ( #128, #55, #124, #146 ) ) ;
#305 = DIRECTION ( 'NONE',  ( 0.000000000000000000, 1.000000000000000000, 0.000000000000000000 ) ) ;
#306 = ORIENTED_EDGE ( 'NONE', *, *, #6, .T. ) ;
#307 = CARTESIAN_POINT ( 'NONE',  ( 0.000000000000000000, 0.000000000000000000, 2.800000000000021583 ) ) ;
#308 = VECTOR ( 'NONE', #76, 1000.000000000000000 ) ;
#309 = ORIENTED_EDGE ( 'NONE', *, *, #213, .T. ) ;
#310 = EDGE_CURVE ( 'NONE', #264, #84, #258, .T. ) ;
#311 = APPLICATION_PROTOCOL_DEFINITION ( 'draft international standard', 'automotive_design', 1998, #2 ) ;
#312 = DIRECTION ( 'NONE',  ( 0.000000000000000000, 0.000000000000000000, 1.000000000000000000 ) ) ;
#313 = AXIS2_PLACEMENT_3D ( 'NONE', #94, #199, #145 ) ;
#314 = DIRECTION ( 'NONE',  ( 0.000000000000000000, 1.000000000000000000, 0.000000000000000000 ) ) ;
#315 = FACE_OUTER_BOUND ( 'NONE', #304, .T. ) ;
#316 = CARTESIAN_POINT ( 'NONE',  ( 0.000000000000000000, 19.50000000000000355, 0.000000000000000000 ) ) ;
#317 = VECTOR ( 'NONE', #107, 1000.000000000000000 ) ;
#318 = ORIENTED_EDGE ( 'NONE', *, *, #310, .F. ) ;
#319 = ORIENTED_EDGE ( 'NONE', *, *, #292, .F. ) ;
#320 = CARTESIAN_POINT ( 'NONE',  ( 3.673940397442058882E-16, 20.00000000000000000, 2.999999999999999112 ) ) ;
ENDSEC;
END-ISO-10303-21;
