ISO-10303-21;
HEADER;
FILE_DESCRIPTION (( 'STEP AP214' ),
    '1' );
FILE_NAME ('INGUN_23503.STEP',
    '2024-07-22T12:25:38',
    ( '' ),
    ( '' ),
    'SwSTEP 2.0',
    'SolidWorks 2021',
    '' );
FILE_SCHEMA (( 'AUTOMOTIVE_DESIGN' ));
ENDSEC;

DATA;
#1 = PRODUCT_DEFINITION ( 'UNKNOWN', '', #246, #65 ) ;
#2 = CIRCLE ( 'NONE', #187, 2.999999999999999112 ) ;
#3 = VECTOR ( 'NONE', #40, 1000.000000000000114 ) ;
#4 = ORIENTED_EDGE ( 'NONE', *, *, #21, .T. ) ;
#5 = AXIS2_PLACEMENT_3D ( 'NONE', #233, #165, #140 ) ;
#6 = DIRECTION ( 'NONE',  ( -0.000000000000000000, -1.000000000000000000, -0.000000000000000000 ) ) ;
#7 = ORIENTED_EDGE ( 'NONE', *, *, #255, .T. ) ;
#8 =( NAMED_UNIT ( * ) PLANE_ANGLE_UNIT ( ) SI_UNIT ( $, .RADIAN. ) );
#9 = ORIENTED_EDGE ( 'NONE', *, *, #89, .T. ) ;
#10 =( NAMED_UNIT ( * ) SI_UNIT ( $, .STERADIAN. ) SOLID_ANGLE_UNIT ( ) );
#11 = CARTESIAN_POINT ( 'NONE',  ( 0.000000000000000000, 20.00000000000000000, 0.000000000000000000 ) ) ;
#12 = AXIS2_PLACEMENT_3D ( 'NONE', #20, #173, #228 ) ;
#13 = ADVANCED_FACE ( 'NONE', ( #102 ), #306, .F. ) ;
#14 =( GEOMETRIC_REPRESENTATION_CONTEXT ( 3 ) GLOBAL_UNCERTAINTY_ASSIGNED_CONTEXT ( ( #127 ) ) GLOBAL_UNIT_ASSIGNED_CONTEXT ( ( #275, #69, #252 ) ) REPRESENTATION_CONTEXT ( 'NONE', 'WORKASPACE' ) );
#15 = ADVANCED_FACE ( 'NONE', ( #157, #129 ), #235, .T. ) ;
#16 = FACE_OUTER_BOUND ( 'NONE', #134, .T. ) ;
#17 = DIRECTION ( 'NONE',  ( 0.000000000000000000, 1.000000000000000000, 0.000000000000000000 ) ) ;
#18 = EDGE_LOOP ( 'NONE', ( #25, #249, #29, #209 ) ) ;
#19 = CARTESIAN_POINT ( 'NONE',  ( 0.000000000000000000, 16.00000000000000000, 0.000000000000000000 ) ) ;
#20 = CARTESIAN_POINT ( 'NONE',  ( 0.000000000000000000, 0.000000000000000000, 0.000000000000000000 ) ) ;
#21 = EDGE_CURVE ( 'NONE', #181, #263, #154, .T. ) ;
#22 = EDGE_CURVE ( 'NONE', #215, #114, #92, .T. ) ;
#23 = UNCERTAINTY_MEASURE_WITH_UNIT (LENGTH_MEASURE( 1.000000000000000082E-05 ), #195, 'distance_accuracy_value', 'NONE');
#24 = DIRECTION ( 'NONE',  ( -0.000000000000000000, 1.000000000000000000, -0.000000000000000000 ) ) ;
#25 = ORIENTED_EDGE ( 'NONE', *, *, #259, .F. ) ;
#26 = CARTESIAN_POINT ( 'NONE',  ( 0.000000000000000000, 20.00000000000000000, 0.000000000000000000 ) ) ;
#27 = CIRCLE ( 'NONE', #75, 2.999999999999999112 ) ;
#28 =( LENGTH_UNIT ( ) NAMED_UNIT ( * ) SI_UNIT ( .MILLI., .METRE. ) );
#29 = ORIENTED_EDGE ( 'NONE', *, *, #243, .F. ) ;
#30 = ADVANCED_FACE ( 'NONE', ( #288 ), #137, .F. ) ;
#31 = DIRECTION ( 'NONE',  ( 0.000000000000000000, 0.7071067811865426878, 0.7071067811865522357 ) ) ;
#32 = CYLINDRICAL_SURFACE ( 'NONE', #130, 2.999999999999999112 ) ;
#33 = CARTESIAN_POINT ( 'NONE',  ( 0.000000000000000000, 0.000000000000000000, 2.799999999999998046 ) ) ;
#34 = AXIS2_PLACEMENT_3D ( 'NONE', #273, #62, #242 ) ;
#35 = CARTESIAN_POINT ( 'NONE',  ( 0.000000000000000000, 19.50000000000000355, 1.449999999999999956 ) ) ;
#36 =( NAMED_UNIT ( * ) PLANE_ANGLE_UNIT ( ) SI_UNIT ( $, .RADIAN. ) );
#37 = DIRECTION ( 'NONE',  ( -0.000000000000000000, -1.000000000000000000, -0.000000000000000000 ) ) ;
#38 = EDGE_CURVE ( 'NONE', #263, #181, #234, .T. ) ;
#39 = AXIS2_PLACEMENT_3D ( 'NONE', #284, #6, #96 ) ;
#40 = DIRECTION ( 'NONE',  ( 8.659560562354992023E-17, 0.7071067811865426878, -0.7071067811865522357 ) ) ;
#41 = VERTEX_POINT ( 'NONE', #266 ) ;
#42 = DIRECTION ( 'NONE',  ( 0.000000000000000000, 0.000000000000000000, -1.000000000000000000 ) ) ;
#43 = CARTESIAN_POINT ( 'NONE',  ( 0.000000000000000000, 0.1999999999999987899, 0.000000000000000000 ) ) ;
#44 = AXIS2_PLACEMENT_3D ( 'NONE', #300, #24, #280 ) ;
#45 = DIRECTION ( 'NONE',  ( 0.000000000000000000, -0.000000000000000000, 1.000000000000000000 ) ) ;
#46 = APPLICATION_PROTOCOL_DEFINITION ( 'draft international standard', 'automotive_design', 1998, #104 ) ;
#47 = ORIENTED_EDGE ( 'NONE', *, *, #172, .T. ) ;
#48 = CARTESIAN_POINT ( 'NONE',  ( 1.775737858763661916E-16, 19.50000000000000355, -1.449999999999999956 ) ) ;
#49 = ORIENTED_EDGE ( 'NONE', *, *, #290, .T. ) ;
#50 = FILL_AREA_STYLE ('',( #256 ) ) ;
#51 = CIRCLE ( 'NONE', #12, 2.799999999999998046 ) ;
#52 = DIRECTION ( 'NONE',  ( 0.000000000000000000, 0.000000000000000000, 1.000000000000000000 ) ) ;
#53 = LINE ( 'NONE', #117, #251 ) ;
#54 = ORIENTED_EDGE ( 'NONE', *, *, #22, .F. ) ;
#55 = DIRECTION ( 'NONE',  ( 0.000000000000000000, 0.000000000000000000, 1.000000000000000000 ) ) ;
#56 = EDGE_CURVE ( 'NONE', #181, #215, #237, .T. ) ;
#57 = DIRECTION ( 'NONE',  ( 0.000000000000000000, 1.000000000000000000, 0.000000000000000000 ) ) ;
#58 = CARTESIAN_POINT ( 'NONE',  ( 0.000000000000000000, 19.50000000000000355, 0.000000000000000000 ) ) ;
#59 = CARTESIAN_POINT ( 'NONE',  ( 0.000000000000000000, 16.00000000000000000, 1.449999999999999956 ) ) ;
#60 = DIRECTION ( 'NONE',  ( 0.000000000000000000, 0.000000000000000000, 1.000000000000000000 ) ) ;
#61 = PRODUCT_CONTEXT ( 'NONE', #104, 'mechanical' ) ;
#62 = DIRECTION ( 'NONE',  ( -0.000000000000000000, 1.000000000000000000, -0.000000000000000000 ) ) ;
#63 = ADVANCED_FACE ( 'NONE', ( #190 ), #32, .T. ) ;
#64 = DIRECTION ( 'NONE',  ( 0.000000000000000000, 0.000000000000000000, 1.000000000000000000 ) ) ;
#65 = PRODUCT_DEFINITION_CONTEXT ( 'detailed design', #118, 'design' ) ;
#66 = FACE_OUTER_BOUND ( 'NONE', #176, .T. ) ;
#67 = VERTEX_POINT ( 'NONE', #218 ) ;
#68 = FACE_OUTER_BOUND ( 'NONE', #304, .T. ) ;
#69 =( NAMED_UNIT ( * ) PLANE_ANGLE_UNIT ( ) SI_UNIT ( $, .RADIAN. ) );
#70 = ORIENTED_EDGE ( 'NONE', *, *, #21, .F. ) ;
#71 = ORIENTED_EDGE ( 'NONE', *, *, #22, .T. ) ;
#72 = PRODUCT_RELATED_PRODUCT_CATEGORY ( 'part', '', ( #184 ) ) ;
#73 = VECTOR ( 'NONE', #161, 1000.000000000000000 ) ;
#74 = CARTESIAN_POINT ( 'NONE',  ( 0.000000000000000000, 16.00000000000000000, 0.000000000000000000 ) ) ;
#75 = AXIS2_PLACEMENT_3D ( 'NONE', #26, #171, #175 ) ;
#76 = ORIENTED_EDGE ( 'NONE', *, *, #283, .F. ) ;
#77 = EDGE_CURVE ( 'NONE', #257, #258, #143, .T. ) ;
#78 = EDGE_CURVE ( 'NONE', #95, #208, #2, .T. ) ;
#79 = ORIENTED_EDGE ( 'NONE', *, *, #89, .F. ) ;
#80 = DIRECTION ( 'NONE',  ( 0.000000000000000000, 0.000000000000000000, 1.000000000000000000 ) ) ;
#81 = EDGE_LOOP ( 'NONE', ( #153, #191, #212, #307 ) ) ;
#82 = LINE ( 'NONE', #59, #73 ) ;
#83 = VECTOR ( 'NONE', #210, 1000.000000000000114 ) ;
#84 =( GEOMETRIC_REPRESENTATION_CONTEXT ( 3 ) GLOBAL_UNCERTAINTY_ASSIGNED_CONTEXT ( ( #202 ) ) GLOBAL_UNIT_ASSIGNED_CONTEXT ( ( #28, #8, #10 ) ) REPRESENTATION_CONTEXT ( 'NONE', 'WORKASPACE' ) );
#85 = ORIENTED_EDGE ( 'NONE', *, *, #186, .F. ) ;
#86 = AXIS2_PLACEMENT_3D ( 'NONE', #241, #162, #107 ) ;
#87 = DIRECTION ( 'NONE',  ( 0.000000000000000000, 0.000000000000000000, 1.000000000000000000 ) ) ;
#88 = PRESENTATION_LAYER_ASSIGNMENT (  '', '', ( #265 ) ) ;
#89 = EDGE_CURVE ( 'NONE', #258, #181, #82, .T. ) ;
#90 = LINE ( 'NONE', #112, #199 ) ;
#91 = CARTESIAN_POINT ( 'NONE',  ( 0.000000000000000000, 19.50000000000000355, 1.449999999999999956 ) ) ;
#92 = CIRCLE ( 'NONE', #281, 1.950000000000003508 ) ;
#93 = MECHANICAL_DESIGN_GEOMETRIC_PRESENTATION_REPRESENTATION (  '', ( #265 ), #133 ) ;
#94 = CARTESIAN_POINT ( 'NONE',  ( 0.000000000000000000, 20.00000000000000000, 1.950000000000003508 ) ) ;
#95 = VERTEX_POINT ( 'NONE', #261 ) ;
#96 = DIRECTION ( 'NONE',  ( 0.000000000000000000, 0.000000000000000000, 1.000000000000000000 ) ) ;
#97 = EDGE_LOOP ( 'NONE', ( #183, #289 ) ) ;
#98 = PLANE ( 'NONE',  #319 ) ;
#99 = VECTOR ( 'NONE', #227, 1000.000000000000000 ) ;
#100 = ORIENTED_EDGE ( 'NONE', *, *, #243, .T. ) ;
#101 = DIRECTION ( 'NONE',  ( 0.000000000000000000, 1.000000000000000000, 0.000000000000000000 ) ) ;
#102 = FACE_OUTER_BOUND ( 'NONE', #174, .T. ) ;
#103 = CARTESIAN_POINT ( 'NONE',  ( 0.000000000000000000, 0.1999999999999987899, 0.000000000000000000 ) ) ;
#104 = APPLICATION_CONTEXT ( 'automotive_design' ) ;
#105 = VERTEX_POINT ( 'NONE', #33 ) ;
#106 = CIRCLE ( 'NONE', #164, 2.999999999999999112 ) ;
#107 = DIRECTION ( 'NONE',  ( 0.000000000000000000, 0.000000000000000000, 1.000000000000000000 ) ) ;
#108 = CLOSED_SHELL ( 'NONE', ( #30, #197, #135, #63, #203, #15, #301, #13, #221, #311, #236 ) ) ;
#109 = EDGE_LOOP ( 'NONE', ( #71, #201 ) ) ;
#110 = LINE ( 'NONE', #196, #3 ) ;
#111 = CARTESIAN_POINT ( 'NONE',  ( 0.000000000000000000, 16.00000000000000000, 0.000000000000000000 ) ) ;
#112 = CARTESIAN_POINT ( 'NONE',  ( 1.775737858763661916E-16, 16.00000000000000000, -1.449999999999999956 ) ) ;
#113 = VECTOR ( 'NONE', #200, 1000.000000000000114 ) ;
#114 = VERTEX_POINT ( 'NONE', #222 ) ;
#115 = CARTESIAN_POINT ( 'NONE',  ( 0.000000000000000000, 0.000000000000000000, 0.000000000000000000 ) ) ;
#116 = PRESENTATION_LAYER_ASSIGNMENT (  '', '', ( #276 ) ) ;
#117 = CARTESIAN_POINT ( 'NONE',  ( 3.673940397442058882E-16, 20.00000000000000000, 2.999999999999999112 ) ) ;
#118 = APPLICATION_CONTEXT ( 'automotive_design' ) ;
#119 = CARTESIAN_POINT ( 'NONE',  ( 0.000000000000000000, 20.00000000000000000, -2.999999999999999112 ) ) ;
#120 = ORIENTED_EDGE ( 'NONE', *, *, #56, .T. ) ;
#121 = EDGE_CURVE ( 'NONE', #105, #67, #294, .T. ) ;
#122 = DIRECTION ( 'NONE',  ( 0.000000000000000000, 0.000000000000000000, 1.000000000000000000 ) ) ;
#123 = VERTEX_POINT ( 'NONE', #146 ) ;
#124 = SURFACE_SIDE_STYLE ('',( #156 ) ) ;
#125 = CONICAL_SURFACE ( 'NONE', #34, 2.999999999999999112, 0.7853981633974537191 ) ;
#126 = EDGE_LOOP ( 'NONE', ( #49, #128 ) ) ;
#127 = UNCERTAINTY_MEASURE_WITH_UNIT (LENGTH_MEASURE( 1.000000000000000082E-05 ), #275, 'distance_accuracy_value', 'NONE');
#128 = ORIENTED_EDGE ( 'NONE', *, *, #78, .T. ) ;
#129 = FACE_OUTER_BOUND ( 'NONE', #126, .T. ) ;
#130 = AXIS2_PLACEMENT_3D ( 'NONE', #141, #314, #160 ) ;
#131 = PRODUCT_DEFINITION_SHAPE ( 'NONE', 'NONE',  #1 ) ;
#132 = CARTESIAN_POINT ( 'NONE',  ( 0.000000000000000000, 19.50000000000000355, 0.000000000000000000 ) ) ;
#133 =( GEOMETRIC_REPRESENTATION_CONTEXT ( 3 ) GLOBAL_UNCERTAINTY_ASSIGNED_CONTEXT ( ( #23 ) ) GLOBAL_UNIT_ASSIGNED_CONTEXT ( ( #195, #36, #293 ) ) REPRESENTATION_CONTEXT ( 'NONE', 'WORKASPACE' ) );
#134 = EDGE_LOOP ( 'NONE', ( #260, #70, #120, #76 ) ) ;
#135 = ADVANCED_FACE ( 'NONE', ( #68 ), #168, .F. ) ;
#136 = DIRECTION ( 'NONE',  ( 0.000000000000000000, 0.000000000000000000, 1.000000000000000000 ) ) ;
#137 = CONICAL_SURFACE ( 'NONE', #274, 1.449999999999999956, 0.7853981633974549403 ) ;
#138 = DIRECTION ( 'NONE',  ( 0.000000000000000000, 0.000000000000000000, 1.000000000000000000 ) ) ;
#139 = COLOUR_RGB ( '',0.7960784313725489669, 0.8235294117647058432, 0.9372549019607843146 ) ;
#140 = DIRECTION ( 'NONE',  ( 1.000000000000000000, 0.000000000000000000, 0.000000000000000000 ) ) ;
#141 = CARTESIAN_POINT ( 'NONE',  ( 0.000000000000000000, 20.00000000000000000, 0.000000000000000000 ) ) ;
#142 = EDGE_CURVE ( 'NONE', #105, #123, #308, .T. ) ;
#143 = CIRCLE ( 'NONE', #86, 1.449999999999999956 ) ;
#144 = PLANE ( 'NONE',  #217 ) ;
#145 = ORIENTED_EDGE ( 'NONE', *, *, #277, .F. ) ;
#146 = CARTESIAN_POINT ( 'NONE',  ( 3.551475717527322846E-16, 0.000000000000000000, -2.799999999999998046 ) ) ;
#147 = MANIFOLD_SOLID_BREP ( 'Fase2', #108 ) ;
#148 = ORIENTED_EDGE ( 'NONE', *, *, #290, .F. ) ;
#149 = FILL_AREA_STYLE ('',( #244 ) ) ;
#150 = FACE_OUTER_BOUND ( 'NONE', #97, .T. ) ;
#151 = CARTESIAN_POINT ( 'NONE',  ( 3.673940397442058882E-16, 0.1999999999999987899, -2.999999999999999112 ) ) ;
#152 = DIRECTION ( 'NONE',  ( -0.000000000000000000, 1.000000000000000000, -0.000000000000000000 ) ) ;
#153 = ORIENTED_EDGE ( 'NONE', *, *, #287, .F. ) ;
#154 = CIRCLE ( 'NONE', #239, 1.449999999999999956 ) ;
#155 = EDGE_LOOP ( 'NONE', ( #271, #206, #100, #254 ) ) ;
#156 = SURFACE_STYLE_FILL_AREA ( #50 ) ;
#157 = FACE_BOUND ( 'NONE', #109, .T. ) ;
#158 = ORIENTED_EDGE ( 'NONE', *, *, #77, .F. ) ;
#159 = DIRECTION ( 'NONE',  ( 0.000000000000000000, 1.000000000000000000, 0.000000000000000000 ) ) ;
#160 = DIRECTION ( 'NONE',  ( 0.000000000000000000, 0.000000000000000000, -1.000000000000000000 ) ) ;
#161 = DIRECTION ( 'NONE',  ( -0.000000000000000000, 1.000000000000000000, -0.000000000000000000 ) ) ;
#162 = DIRECTION ( 'NONE',  ( 0.000000000000000000, 1.000000000000000000, 0.000000000000000000 ) ) ;
#163 = EDGE_CURVE ( 'NONE', #257, #263, #90, .T. ) ;
#164 = AXIS2_PLACEMENT_3D ( 'NONE', #43, #193, #87 ) ;
#165 = DIRECTION ( 'NONE',  ( 0.000000000000000000, 0.000000000000000000, 1.000000000000000000 ) ) ;
#166 = DIRECTION ( 'NONE',  ( 0.000000000000000000, -0.000000000000000000, 1.000000000000000000 ) ) ;
#167 = CARTESIAN_POINT ( 'NONE',  ( 0.000000000000000000, 0.1999999999999987899, 2.999999999999999112 ) ) ;
#168 = CYLINDRICAL_SURFACE ( 'NONE', #297, 1.449999999999999956 ) ;
#169 = CONICAL_SURFACE ( 'NONE', #44, 2.999999999999999112, 0.7853981633974537191 ) ;
#170 = DIRECTION ( 'NONE',  ( 0.000000000000000000, 0.000000000000000000, 1.000000000000000000 ) ) ;
#171 = DIRECTION ( 'NONE',  ( 0.000000000000000000, 1.000000000000000000, 0.000000000000000000 ) ) ;
#172 = EDGE_CURVE ( 'NONE', #263, #114, #110, .T. ) ;
#173 = DIRECTION ( 'NONE',  ( -0.000000000000000000, -1.000000000000000000, -0.000000000000000000 ) ) ;
#174 = EDGE_LOOP ( 'NONE', ( #298, #85, #9, #4 ) ) ;
#175 = DIRECTION ( 'NONE',  ( 0.000000000000000000, 0.000000000000000000, 1.000000000000000000 ) ) ;
#176 = EDGE_LOOP ( 'NONE', ( #145, #148, #7, #302 ) ) ;
#177 = VECTOR ( 'NONE', #31, 1000.000000000000114 ) ;
#178 = ORIENTED_EDGE ( 'NONE', *, *, #38, .F. ) ;
#179 = ADVANCED_BREP_SHAPE_REPRESENTATION ( 'INGUN_23503', ( #147, #5 ), #14 ) ;
#180 = CARTESIAN_POINT ( 'NONE',  ( 0.000000000000000000, 16.00000000000000000, 1.449999999999999956 ) ) ;
#181 = VERTEX_POINT ( 'NONE', #91 ) ;
#182 = DIRECTION ( 'NONE',  ( -0.000000000000000000, -1.000000000000000000, -0.000000000000000000 ) ) ;
#183 = ORIENTED_EDGE ( 'NONE', *, *, #186, .T. ) ;
#184 = PRODUCT ( 'INGUN_23503', 'INGUN_23503', '', ( #61 ) ) ;
#185 = DIRECTION ( 'NONE',  ( 0.000000000000000000, 1.000000000000000000, 0.000000000000000000 ) ) ;
#186 = EDGE_CURVE ( 'NONE', #258, #257, #230, .T. ) ;
#187 = AXIS2_PLACEMENT_3D ( 'NONE', #262, #309, #80 ) ;
#188 = CONICAL_SURFACE ( 'NONE', #213, 1.449999999999999956, 0.7853981633974549403 ) ;
#189 = CARTESIAN_POINT ( 'NONE',  ( 0.000000000000000000, 19.50000000000000355, 0.000000000000000000 ) ) ;
#190 = FACE_OUTER_BOUND ( 'NONE', #155, .T. ) ;
#191 = ORIENTED_EDGE ( 'NONE', *, *, #142, .F. ) ;
#192 = CARTESIAN_POINT ( 'NONE',  ( 0.000000000000000000, 20.00000000000000000, 0.000000000000000000 ) ) ;
#193 = DIRECTION ( 'NONE',  ( -0.000000000000000000, 1.000000000000000000, -0.000000000000000000 ) ) ;
#194 = COLOUR_RGB ( '',0.7960784313725489669, 0.8235294117647058432, 0.9372549019607843146 ) ;
#195 =( LENGTH_UNIT ( ) NAMED_UNIT ( * ) SI_UNIT ( .MILLI., .METRE. ) );
#196 = CARTESIAN_POINT ( 'NONE',  ( 1.775737858763661916E-16, 19.50000000000000355, -1.449999999999999956 ) ) ;
#197 = ADVANCED_FACE ( 'NONE', ( #296 ), #125, .T. ) ;
#198 = DIRECTION ( 'NONE',  ( 0.000000000000000000, 0.000000000000000000, 1.000000000000000000 ) ) ;
#199 = VECTOR ( 'NONE', #317, 1000.000000000000000 ) ;
#200 = DIRECTION ( 'NONE',  ( 0.000000000000000000, 0.7071067811865436870, 0.7071067811865513475 ) ) ;
#201 = ORIENTED_EDGE ( 'NONE', *, *, #283, .T. ) ;
#202 = UNCERTAINTY_MEASURE_WITH_UNIT (LENGTH_MEASURE( 1.000000000000000082E-05 ), #28, 'distance_accuracy_value', 'NONE');
#203 = ADVANCED_FACE ( 'NONE', ( #66 ), #269, .T. ) ;
#204 = FACE_OUTER_BOUND ( 'NONE', #229, .T. ) ;
#205 = LINE ( 'NONE', #119, #99 ) ;
#206 = ORIENTED_EDGE ( 'NONE', *, *, #277, .T. ) ;
#207 = CARTESIAN_POINT ( 'NONE',  ( 0.000000000000000000, 0.000000000000000000, 0.000000000000000000 ) ) ;
#208 = VERTEX_POINT ( 'NONE', #318 ) ;
#209 = ORIENTED_EDGE ( 'NONE', *, *, #121, .F. ) ;
#210 = DIRECTION ( 'NONE',  ( 8.659560562354979697E-17, 0.7071067811865436870, -0.7071067811865513475 ) ) ;
#211 = AXIS2_PLACEMENT_3D ( 'NONE', #132, #310, #138 ) ;
#212 = ORIENTED_EDGE ( 'NONE', *, *, #121, .T. ) ;
#213 = AXIS2_PLACEMENT_3D ( 'NONE', #219, #316, #60 ) ;
#214 = ORIENTED_EDGE ( 'NONE', *, *, #259, .T. ) ;
#215 = VERTEX_POINT ( 'NONE', #94 ) ;
#216 = EDGE_CURVE ( 'NONE', #41, #67, #106, .T. ) ;
#217 = AXIS2_PLACEMENT_3D ( 'NONE', #111, #17, #166 ) ;
#218 = CARTESIAN_POINT ( 'NONE',  ( 3.673940397442058882E-16, 0.1999999999999987899, 2.999999999999999112 ) ) ;
#219 = CARTESIAN_POINT ( 'NONE',  ( 0.000000000000000000, 19.50000000000000355, 0.000000000000000000 ) ) ;
#220 = PRESENTATION_STYLE_ASSIGNMENT (( #299 ) ) ;
#221 = ADVANCED_FACE ( 'NONE', ( #150 ), #144, .T. ) ;
#222 = CARTESIAN_POINT ( 'NONE',  ( 2.388061258337343080E-16, 20.00000000000000000, -1.950000000000003508 ) ) ;
#223 = SURFACE_STYLE_FILL_AREA ( #149 ) ;
#224 = AXIS2_PLACEMENT_3D ( 'NONE', #11, #57, #45 ) ;
#225 = DIRECTION ( 'NONE',  ( -0.000000000000000000, -1.000000000000000000, -0.000000000000000000 ) ) ;
#226 = AXIS2_PLACEMENT_3D ( 'NONE', #272, #225, #42 ) ;
#227 = DIRECTION ( 'NONE',  ( -0.000000000000000000, -1.000000000000000000, -0.000000000000000000 ) ) ;
#228 = DIRECTION ( 'NONE',  ( 0.000000000000000000, 0.000000000000000000, 1.000000000000000000 ) ) ;
#229 = EDGE_LOOP ( 'NONE', ( #312, #214 ) ) ;
#230 = CIRCLE ( 'NONE', #270, 1.449999999999999956 ) ;
#231 = SURFACE_STYLE_USAGE ( .BOTH. , #124 ) ;
#232 = ORIENTED_EDGE ( 'NONE', *, *, #56, .F. ) ;
#233 = CARTESIAN_POINT ( 'NONE',  ( 0.000000000000000000, 0.000000000000000000, 0.000000000000000000 ) ) ;
#234 = CIRCLE ( 'NONE', #211, 1.449999999999999956 ) ;
#235 = PLANE ( 'NONE',  #224 ) ;
#236 = ADVANCED_FACE ( 'NONE', ( #16 ), #188, .F. ) ;
#237 = LINE ( 'NONE', #35, #177 ) ;
#238 = DIRECTION ( 'NONE',  ( 0.000000000000000000, 0.000000000000000000, 1.000000000000000000 ) ) ;
#239 = AXIS2_PLACEMENT_3D ( 'NONE', #189, #185, #55 ) ;
#240 = AXIS2_PLACEMENT_3D ( 'NONE', #103, #152, #122 ) ;
#241 = CARTESIAN_POINT ( 'NONE',  ( 0.000000000000000000, 16.00000000000000000, 0.000000000000000000 ) ) ;
#242 = DIRECTION ( 'NONE',  ( 0.000000000000000000, 0.000000000000000000, 1.000000000000000000 ) ) ;
#243 = EDGE_CURVE ( 'NONE', #67, #41, #313, .T. ) ;
#244 = FILL_AREA_STYLE_COLOUR ( '', #194 ) ;
#245 = CIRCLE ( 'NONE', #39, 1.950000000000003508 ) ;
#246 = PRODUCT_DEFINITION_FORMATION_WITH_SPECIFIED_SOURCE ( 'ANY', '', #184, .NOT_KNOWN. ) ;
#247 = EDGE_LOOP ( 'NONE', ( #178, #47, #54, #232 ) ) ;
#248 = SURFACE_SIDE_STYLE ('',( #223 ) ) ;
#249 = ORIENTED_EDGE ( 'NONE', *, *, #287, .T. ) ;
#250 = CARTESIAN_POINT ( 'NONE',  ( 1.775737858763661916E-16, 16.00000000000000000, -1.449999999999999956 ) ) ;
#251 = VECTOR ( 'NONE', #320, 1000.000000000000000 ) ;
#252 =( NAMED_UNIT ( * ) SI_UNIT ( $, .STERADIAN. ) SOLID_ANGLE_UNIT ( ) );
#253 = DIRECTION ( 'NONE',  ( 0.000000000000000000, -0.000000000000000000, 1.000000000000000000 ) ) ;
#254 = ORIENTED_EDGE ( 'NONE', *, *, #255, .F. ) ;
#255 = EDGE_CURVE ( 'NONE', #208, #41, #205, .T. ) ;
#256 = FILL_AREA_STYLE_COLOUR ( '', #139 ) ;
#257 = VERTEX_POINT ( 'NONE', #250 ) ;
#258 = VERTEX_POINT ( 'NONE', #180 ) ;
#259 = EDGE_CURVE ( 'NONE', #123, #105, #51, .T. ) ;
#260 = ORIENTED_EDGE ( 'NONE', *, *, #172, .F. ) ;
#261 = CARTESIAN_POINT ( 'NONE',  ( 3.673940397442058882E-16, 20.00000000000000000, 2.999999999999999112 ) ) ;
#262 = CARTESIAN_POINT ( 'NONE',  ( 0.000000000000000000, 20.00000000000000000, 0.000000000000000000 ) ) ;
#263 = VERTEX_POINT ( 'NONE', #48 ) ;
#264 = APPLICATION_PROTOCOL_DEFINITION ( 'draft international standard', 'automotive_design', 1998, #118 ) ;
#265 = STYLED_ITEM ( 'NONE', ( #220 ), #147 ) ;
#266 = CARTESIAN_POINT ( 'NONE',  ( 0.000000000000000000, 0.1999999999999987899, -2.999999999999999112 ) ) ;
#267 = SHAPE_DEFINITION_REPRESENTATION ( #131, #179 ) ;
#268 = CARTESIAN_POINT ( 'NONE',  ( 0.000000000000000000, 16.00000000000000000, 0.000000000000000000 ) ) ;
#269 = CYLINDRICAL_SURFACE ( 'NONE', #226, 2.999999999999999112 ) ;
#270 = AXIS2_PLACEMENT_3D ( 'NONE', #19, #315, #198 ) ;
#271 = ORIENTED_EDGE ( 'NONE', *, *, #78, .F. ) ;
#272 = CARTESIAN_POINT ( 'NONE',  ( 0.000000000000000000, 20.00000000000000000, 0.000000000000000000 ) ) ;
#273 = CARTESIAN_POINT ( 'NONE',  ( 0.000000000000000000, 0.1999999999999987899, 0.000000000000000000 ) ) ;
#274 = AXIS2_PLACEMENT_3D ( 'NONE', #58, #159, #238 ) ;
#275 =( LENGTH_UNIT ( ) NAMED_UNIT ( * ) SI_UNIT ( .MILLI., .METRE. ) );
#276 = STYLED_ITEM ( 'NONE', ( #305 ), #179 ) ;
#277 = EDGE_CURVE ( 'NONE', #95, #67, #53, .T. ) ;
#278 = FACE_OUTER_BOUND ( 'NONE', #81, .T. ) ;
#279 = ORIENTED_EDGE ( 'NONE', *, *, #38, .T. ) ;
#280 = DIRECTION ( 'NONE',  ( 0.000000000000000000, 0.000000000000000000, 1.000000000000000000 ) ) ;
#281 = AXIS2_PLACEMENT_3D ( 'NONE', #192, #182, #136 ) ;
#282 = DIRECTION ( 'NONE',  ( -0.000000000000000000, 1.000000000000000000, -0.000000000000000000 ) ) ;
#283 = EDGE_CURVE ( 'NONE', #114, #215, #245, .T. ) ;
#284 = CARTESIAN_POINT ( 'NONE',  ( 0.000000000000000000, 20.00000000000000000, 0.000000000000000000 ) ) ;
#285 = ORIENTED_EDGE ( 'NONE', *, *, #163, .T. ) ;
#286 = AXIS2_PLACEMENT_3D ( 'NONE', #115, #37, #170 ) ;
#287 = EDGE_CURVE ( 'NONE', #123, #41, #303, .T. ) ;
#288 = FACE_OUTER_BOUND ( 'NONE', #247, .T. ) ;
#289 = ORIENTED_EDGE ( 'NONE', *, *, #77, .T. ) ;
#290 = EDGE_CURVE ( 'NONE', #208, #95, #27, .T. ) ;
#291 = MECHANICAL_DESIGN_GEOMETRIC_PRESENTATION_REPRESENTATION (  '', ( #276 ), #84 ) ;
#292 = DIRECTION ( 'NONE',  ( -0.000000000000000000, 1.000000000000000000, -0.000000000000000000 ) ) ;
#293 =( NAMED_UNIT ( * ) SI_UNIT ( $, .STERADIAN. ) SOLID_ANGLE_UNIT ( ) );
#294 = LINE ( 'NONE', #167, #113 ) ;
#295 = AXIS2_PLACEMENT_3D ( 'NONE', #74, #282, #52 ) ;
#296 = FACE_OUTER_BOUND ( 'NONE', #18, .T. ) ;
#297 = AXIS2_PLACEMENT_3D ( 'NONE', #268, #292, #64 ) ;
#298 = ORIENTED_EDGE ( 'NONE', *, *, #163, .F. ) ;
#299 = SURFACE_STYLE_USAGE ( .BOTH. , #248 ) ;
#300 = CARTESIAN_POINT ( 'NONE',  ( 0.000000000000000000, 0.1999999999999987899, 0.000000000000000000 ) ) ;
#301 = ADVANCED_FACE ( 'NONE', ( #204 ), #98, .F. ) ;
#302 = ORIENTED_EDGE ( 'NONE', *, *, #216, .T. ) ;
#303 = LINE ( 'NONE', #151, #83 ) ;
#304 = EDGE_LOOP ( 'NONE', ( #158, #285, #279, #79 ) ) ;
#305 = PRESENTATION_STYLE_ASSIGNMENT (( #231 ) ) ;
#306 = CYLINDRICAL_SURFACE ( 'NONE', #295, 1.449999999999999956 ) ;
#307 = ORIENTED_EDGE ( 'NONE', *, *, #216, .F. ) ;
#308 = CIRCLE ( 'NONE', #286, 2.799999999999998046 ) ;
#309 = DIRECTION ( 'NONE',  ( 0.000000000000000000, 1.000000000000000000, 0.000000000000000000 ) ) ;
#310 = DIRECTION ( 'NONE',  ( 0.000000000000000000, 1.000000000000000000, 0.000000000000000000 ) ) ;
#311 = ADVANCED_FACE ( 'NONE', ( #278 ), #169, .T. ) ;
#312 = ORIENTED_EDGE ( 'NONE', *, *, #142, .T. ) ;
#313 = CIRCLE ( 'NONE', #240, 2.999999999999999112 ) ;
#314 = DIRECTION ( 'NONE',  ( -0.000000000000000000, -1.000000000000000000, -0.000000000000000000 ) ) ;
#315 = DIRECTION ( 'NONE',  ( 0.000000000000000000, 1.000000000000000000, 0.000000000000000000 ) ) ;
#316 = DIRECTION ( 'NONE',  ( 0.000000000000000000, 1.000000000000000000, 0.000000000000000000 ) ) ;
#317 = DIRECTION ( 'NONE',  ( -0.000000000000000000, 1.000000000000000000, -0.000000000000000000 ) ) ;
#318 = CARTESIAN_POINT ( 'NONE',  ( 0.000000000000000000, 20.00000000000000000, -2.999999999999999112 ) ) ;
#319 = AXIS2_PLACEMENT_3D ( 'NONE', #207, #101, #253 ) ;
#320 = DIRECTION ( 'NONE',  ( -0.000000000000000000, -1.000000000000000000, -0.000000000000000000 ) ) ;
ENDSEC;
END-ISO-10303-21;
