ISO-10303-21;
HEADER;
FILE_DESCRIPTION (( 'STEP AP203' ),
    '1' );
FILE_NAME ('INGUN_25146.STEP',
    '2023-04-27T09:03:07',
    ( '' ),
    ( '' ),
    'SwSTEP 2.0',
    'SolidWorks 2021',
    '' );
FILE_SCHEMA (( 'CONFIG_CONTROL_DESIGN' ));
ENDSEC;

DATA;
#1 = ORIENTED_EDGE ( 'NONE', *, *, #143, .F. ) ;
#2 = FACE_OUTER_BOUND ( 'NONE', #33, .T. ) ;
#3 = CIRCLE ( 'NONE', #183, 5.000000000000000000 ) ;
#4 = APPROVAL ( #139, 'UNSPECIFIED' ) ;
#5 = ORIENTED_EDGE ( 'NONE', *, *, #140, .T. ) ;
#6 = CYLINDRICAL_SURFACE ( 'NONE', #189, 5.000000000000005329 ) ;
#7 = APPLICATION_PROTOCOL_DEFINITION ( 'international standard', 'config_control_design', 1994, #11 ) ;
#8 = CARTESIAN_POINT ( 'NONE',  ( 0.000000000000000000, 96.20000000000000284, 0.000000000000000000 ) ) ;
#9 = DIRECTION ( 'NONE',  ( -0.000000000000000000, 1.000000000000000000, -0.000000000000000000 ) ) ;
#10 = CIRCLE ( 'NONE', #54, 1.500000000000012657 ) ;
#11 = APPLICATION_CONTEXT ( 'configuration controlled 3d designs of mechanical parts and assemblies' ) ;
#12 = DIRECTION ( 'NONE',  ( 0.000000000000000000, 0.000000000000000000, 1.000000000000000000 ) ) ;
#13 = DATE_TIME_ROLE ( 'classification_date' ) ;
#14 = APPROVAL ( #83, 'UNSPECIFIED' ) ;
#15 = PERSON_AND_ORGANIZATION_ROLE ( 'classification_officer' ) ;
#16 = PERSON_AND_ORGANIZATION ( #121, #171 ) ;
#17 = DATE_TIME_ROLE ( 'creation_date' ) ;
#18 = CARTESIAN_POINT ( 'NONE',  ( 0.000000000000000000, 19.90000000000000213, 0.000000000000000000 ) ) ;
#19 = VERTEX_POINT ( 'NONE', #146 ) ;
#20 = LINE ( 'NONE', #160, #174 ) ;
#21 = CC_DESIGN_SECURITY_CLASSIFICATION ( #88, ( #36 ) ) ;
#22 = VERTEX_POINT ( 'NONE', #55 ) ;
#23 = DIRECTION ( 'NONE',  ( 0.000000000000000000, 0.000000000000000000, 1.000000000000000000 ) ) ;
#24 = EDGE_CURVE ( 'NONE', #19, #144, #162, .T. ) ;
#25 = DIRECTION ( 'NONE',  ( -0.000000000000000000, 1.000000000000000000, -0.000000000000000000 ) ) ;
#26 = CYLINDRICAL_SURFACE ( 'NONE', #178, 5.000000000000005329 ) ;
#27 = DIRECTION ( 'NONE',  ( 0.000000000000000000, 0.000000000000000000, 1.000000000000000000 ) ) ;
#28 = APPROVAL_PERSON_ORGANIZATION ( #221, #204, #31 ) ;
#29 = DATE_AND_TIME ( #184, #107 ) ;
#30 = UNCERTAINTY_MEASURE_WITH_UNIT (LENGTH_MEASURE( 1.000000000000000082E-05 ), #166, 'distance_accuracy_value', 'NONE');
#31 = APPROVAL_ROLE ( '' ) ;
#32 = SECURITY_CLASSIFICATION_LEVEL ( 'unclassified' ) ;
#33 = EDGE_LOOP ( 'NONE', ( #1, #159, #72, #91 ) ) ;
#34 = EDGE_LOOP ( 'NONE', ( #39, #106 ) ) ;
#35 = DIRECTION ( 'NONE',  ( 0.000000000000000000, 0.000000000000000000, 1.000000000000000000 ) ) ;
#36 = PRODUCT_DEFINITION_FORMATION_WITH_SPECIFIED_SOURCE ( 'ANY', '', #136, .NOT_KNOWN. ) ;
#37 = PRODUCT_DEFINITION ( 'UNKNOWN', '', #36, #169 ) ;
#38 = FACE_OUTER_BOUND ( 'NONE', #177, .T. ) ;
#39 = ORIENTED_EDGE ( 'NONE', *, *, #180, .T. ) ;
#40 = CC_DESIGN_PERSON_AND_ORGANIZATION_ASSIGNMENT ( #68, #15, ( #88 ) ) ;
#41 = DIRECTION ( 'NONE',  ( 0.000000000000000000, 0.9848830444662590722, 0.1732206359614022195 ) ) ;
#42 = DIRECTION ( 'NONE',  ( 0.000000000000000000, 0.000000000000000000, 1.000000000000000000 ) ) ;
#43 = PERSON_AND_ORGANIZATION_ROLE ( 'design_supplier' ) ;
#44 = CIRCLE ( 'NONE', #202, 5.000000000000010658 ) ;
#45 = CC_DESIGN_APPROVAL ( #14, ( #36 ) ) ;
#46 = CALENDAR_DATE ( 2023, 27, 4 ) ;
#47 = DIRECTION ( 'NONE',  ( -0.000000000000000000, 1.000000000000000000, -0.000000000000000000 ) ) ;
#48 = CC_DESIGN_DATE_AND_TIME_ASSIGNMENT ( #119, #17, ( #37 ) ) ;
#49 = VECTOR ( 'NONE', #130, 1000.000000000000114 ) ;
#50 = ORIENTED_EDGE ( 'NONE', *, *, #120, .F. ) ;
#51 = ORIENTED_EDGE ( 'NONE', *, *, #24, .T. ) ;
#52 = ADVANCED_BREP_SHAPE_REPRESENTATION ( 'INGUN_25146', ( #64, #60 ), #71 ) ;
#53 = ORIENTED_EDGE ( 'NONE', *, *, #140, .F. ) ;
#54 = AXIS2_PLACEMENT_3D ( 'NONE', #216, #151, #165 ) ;
#55 = CARTESIAN_POINT ( 'NONE',  ( 0.000000000000000000, 19.90000000000000213, 5.000000000000010658 ) ) ;
#56 =( NAMED_UNIT ( * ) SI_UNIT ( $, .STERADIAN. ) SOLID_ANGLE_UNIT ( ) );
#57 = EDGE_CURVE ( 'Defeature ausgeführt1_1+Defeature ausgeführt1_2+Defeature ausgeführt1_2+Defeature ausgeführt1_2', #22, #144, #44, .T. ) ;
#58 = DIRECTION ( 'NONE',  ( -0.000000000000000000, 1.000000000000000000, -0.000000000000000000 ) ) ;
#59 = EDGE_CURVE ( 'Defeature ausgeführt1_1+Defeature ausgeführt1_2+Defeature ausgeführt1_2+Defeature ausgeführt1_2', #144, #22, #111, .T. ) ;
#60 = AXIS2_PLACEMENT_3D ( 'NONE', #110, #42, #76 ) ;
#61 = FACE_OUTER_BOUND ( 'NONE', #34, .T. ) ;
#62 = CC_DESIGN_PERSON_AND_ORGANIZATION_ASSIGNMENT ( #148, #94, ( #136 ) ) ;
#63 = CARTESIAN_POINT ( 'NONE',  ( 0.000000000000000000, 101.9131267051646859, 5.000000000000005329 ) ) ;
#64 = MANIFOLD_SOLID_BREP ( 'Defeature ausgeführt1_2', #150 ) ;
#65 = PERSON_AND_ORGANIZATION_ROLE ( 'creator' ) ;
#66 = DATE_AND_TIME ( #80, #116 ) ;
#67 = PRODUCT_DEFINITION_SHAPE ( 'NONE', 'NONE',  #37 ) ;
#68 = PERSON_AND_ORGANIZATION ( #121, #171 ) ;
#69 = ORIENTED_EDGE ( 'NONE', *, *, #193, .F. ) ;
#70 = CARTESIAN_POINT ( 'NONE',  ( 0.000000000000000000, 0.000000000000000000, 0.000000000000000000 ) ) ;
#71 =( GEOMETRIC_REPRESENTATION_CONTEXT ( 3 ) GLOBAL_UNCERTAINTY_ASSIGNED_CONTEXT ( ( #30 ) ) GLOBAL_UNIT_ASSIGNED_CONTEXT ( ( #166, #134, #56 ) ) REPRESENTATION_CONTEXT ( 'NONE', 'WORKASPACE' ) );
#72 = ORIENTED_EDGE ( 'NONE', *, *, #193, .T. ) ;
#73 = ORIENTED_EDGE ( 'NONE', *, *, #24, .F. ) ;
#74 = VERTEX_POINT ( 'NONE', #85 ) ;
#75 = MECHANICAL_CONTEXT ( 'NONE', #11, 'mechanical' ) ;
#76 = DIRECTION ( 'NONE',  ( 1.000000000000000000, 0.000000000000000000, 0.000000000000000000 ) ) ;
#77 = CARTESIAN_POINT ( 'NONE',  ( 6.123233995736773185E-16, 101.9131267051646859, -5.000000000000005329 ) ) ;
#78 = LINE ( 'NONE', #63, #84 ) ;
#79 = DIRECTION ( 'NONE',  ( 0.000000000000000000, 0.000000000000000000, 1.000000000000000000 ) ) ;
#80 = CALENDAR_DATE ( 2023, 27, 4 ) ;
#81 = COORDINATED_UNIVERSAL_TIME_OFFSET ( 1, 0, .AHEAD. ) ;
#82 = ADVANCED_FACE ( 'Defeature ausgeführt1_1', ( #2 ), #6, .T. ) ;
#83 = APPROVAL_STATUS ( 'not_yet_approved' ) ;
#84 = VECTOR ( 'NONE', #217, 1000.000000000000000 ) ;
#85 = CARTESIAN_POINT ( 'NONE',  ( 0.000000000000000000, 0.000000000000000000, 1.500000000000012657 ) ) ;
#86 = DIRECTION ( 'NONE',  ( -0.000000000000000000, 1.000000000000000000, 0.000000000000000000 ) ) ;
#87 = EDGE_LOOP ( 'NONE', ( #191, #141, #89, #69 ) ) ;
#88 = SECURITY_CLASSIFICATION ( '', '', #32 ) ;
#89 = ORIENTED_EDGE ( 'NONE', *, *, #180, .F. ) ;
#90 = ADVANCED_FACE ( 'Defeature ausgeführt1_3', ( #124 ), #190, .F. ) ;
#91 = ORIENTED_EDGE ( 'NONE', *, *, #102, .F. ) ;
#92 = DIRECTION ( 'NONE',  ( 0.000000000000000000, 0.000000000000000000, 1.000000000000000000 ) ) ;
#93 = ADVANCED_FACE ( 'Defeature ausgeführt1_2', ( #38 ), #157, .T. ) ;
#94 = PERSON_AND_ORGANIZATION_ROLE ( 'design_owner' ) ;
#95 = AXIS2_PLACEMENT_3D ( 'NONE', #18, #194, #163 ) ;
#96 = AXIS2_PLACEMENT_3D ( 'NONE', #133, #58, #79 ) ;
#97 = APPROVAL_DATE_TIME ( #29, #4 ) ;
#98 = DATE_AND_TIME ( #46, #218 ) ;
#99 = CC_DESIGN_PERSON_AND_ORGANIZATION_ASSIGNMENT ( #170, #201, ( #37 ) ) ;
#100 = AXIS2_PLACEMENT_3D ( 'NONE', #175, #86, #35 ) ;
#101 = PERSON_AND_ORGANIZATION ( #121, #171 ) ;
#102 = EDGE_CURVE ( 'Defeature ausgeführt1_0+Defeature ausgeführt1_1+Defeature ausgeführt1_1+Defeature ausgeführt1_1', #212, #192, #138, .T. ) ;
#103 = AXIS2_PLACEMENT_3D ( 'NONE', #70, #176, #142 ) ;
#104 = EDGE_LOOP ( 'NONE', ( #53, #125 ) ) ;
#105 = CARTESIAN_POINT ( 'NONE',  ( 0.000000000000000000, 101.9131267051646859, 0.000000000000000000 ) ) ;
#106 = ORIENTED_EDGE ( 'NONE', *, *, #102, .T. ) ;
#107 = LOCAL_TIME ( 11, 3, 7.000000000000000000, #122 ) ;
#108 = DIRECTION ( 'NONE',  ( -0.000000000000000000, 1.000000000000000000, -0.000000000000000000 ) ) ;
#109 = ORIENTED_EDGE ( 'NONE', *, *, #222, .T. ) ;
#110 = CARTESIAN_POINT ( 'NONE',  ( 0.000000000000000000, 0.000000000000000000, 0.000000000000000000 ) ) ;
#111 = CIRCLE ( 'NONE', #95, 5.000000000000010658 ) ;
#112 = PLANE ( 'NONE',  #128 ) ;
#113 = LINE ( 'NONE', #77, #132 ) ;
#114 = CC_DESIGN_DATE_AND_TIME_ASSIGNMENT ( #98, #13, ( #88 ) ) ;
#115 = DIRECTION ( 'NONE',  ( -0.000000000000000000, 1.000000000000000000, -0.000000000000000000 ) ) ;
#116 = LOCAL_TIME ( 11, 3, 7.000000000000000000, #200 ) ;
#117 = LOCAL_TIME ( 11, 3, 7.000000000000000000, #225 ) ;
#118 = PERSON_AND_ORGANIZATION ( #121, #171 ) ;
#119 = DATE_AND_TIME ( #220, #117 ) ;
#120 = EDGE_CURVE ( 'NONE', #74, #22, #20, .T. ) ;
#121 = PERSON ( 'UNSPECIFIED', 'UNSPECIFIED', 'UNSPECIFIED', ('UNSPECIFIED'), ('UNSPECIFIED'), ('UNSPECIFIED') ) ;
#122 = COORDINATED_UNIVERSAL_TIME_OFFSET ( 1, 0, .AHEAD. ) ;
#123 = APPROVAL_PERSON_ORGANIZATION ( #135, #4, #205 ) ;
#124 = FACE_OUTER_BOUND ( 'NONE', #104, .T. ) ;
#125 = ORIENTED_EDGE ( 'NONE', *, *, #222, .F. ) ;
#126 = DIRECTION ( 'NONE',  ( 0.000000000000000000, 0.000000000000000000, 1.000000000000000000 ) ) ;
#127 = CARTESIAN_POINT ( 'NONE',  ( 1.836970198721045218E-16, 0.000000000000000000, -1.500000000000012657 ) ) ;
#128 = AXIS2_PLACEMENT_3D ( 'NONE', #164, #167, #149 ) ;
#129 = ADVANCED_FACE ( 'Defeature ausgeführt1_2', ( #131 ), #224, .T. ) ;
#130 = DIRECTION ( 'NONE',  ( 2.121340973764001734E-17, 0.9848830444662590722, -0.1732206359614022195 ) ) ;
#131 = FACE_OUTER_BOUND ( 'NONE', #158, .T. ) ;
#132 = VECTOR ( 'NONE', #25, 1000.000000000000000 ) ;
#133 = CARTESIAN_POINT ( 'NONE',  ( 0.000000000000000000, 0.000000000000000000, 0.000000000000000000 ) ) ;
#134 =( NAMED_UNIT ( * ) PLANE_ANGLE_UNIT ( ) SI_UNIT ( $, .RADIAN. ) );
#135 = PERSON_AND_ORGANIZATION ( #121, #171 ) ;
#136 = PRODUCT ( 'INGUN_25146', 'INGUN_25146', '', ( #75 ) ) ;
#137 = SHAPE_DEFINITION_REPRESENTATION ( #67, #52 ) ;
#138 = CIRCLE ( 'NONE', #199, 5.000000000000000000 ) ;
#139 = APPROVAL_STATUS ( 'not_yet_approved' ) ;
#140 = EDGE_CURVE ( 'Defeature ausgeführt1_2+Defeature ausgeführt1_3+Defeature ausgeführt1_3+Defeature ausgeführt1_3', #74, #19, #10, .T. ) ;
#141 = ORIENTED_EDGE ( 'NONE', *, *, #143, .T. ) ;
#142 = DIRECTION ( 'NONE',  ( 0.000000000000000000, 0.000000000000000000, 1.000000000000000000 ) ) ;
#143 = EDGE_CURVE ( 'NONE', #144, #212, #113, .T. ) ;
#144 = VERTEX_POINT ( 'NONE', #198 ) ;
#145 = ORIENTED_EDGE ( 'NONE', *, *, #59, .F. ) ;
#146 = CARTESIAN_POINT ( 'NONE',  ( 3.980102097228911050E-16, 0.000000000000000000, -1.500000000000012657 ) ) ;
#147 = APPLICATION_CONTEXT ( 'configuration controlled 3d designs of mechanical parts and assemblies' ) ;
#148 = PERSON_AND_ORGANIZATION ( #121, #171 ) ;
#149 = DIRECTION ( 'NONE',  ( 0.000000000000000000, -0.000000000000000000, -1.000000000000000000 ) ) ;
#150 = CLOSED_SHELL ( 'NONE', ( #129, #214, #188, #82, #93, #90 ) ) ;
#151 = DIRECTION ( 'NONE',  ( -0.000000000000000000, 1.000000000000000000, -0.000000000000000000 ) ) ;
#152 = CARTESIAN_POINT ( 'NONE',  ( 0.000000000000000000, 96.20000000000000284, 5.000000000000000000 ) ) ;
#153 = CC_DESIGN_APPROVAL ( #4, ( #88 ) ) ;
#154 = CALENDAR_DATE ( 2023, 27, 4 ) ;
#155 = CC_DESIGN_PERSON_AND_ORGANIZATION_ASSIGNMENT ( #118, #65, ( #36 ) ) ;
#156 = DATE_AND_TIME ( #154, #186 ) ;
#157 = CONICAL_SURFACE ( 'NONE', #103, 1.500000000000012657, 0.1740988045756671765 ) ;
#158 = EDGE_LOOP ( 'NONE', ( #5, #51, #206, #50 ) ) ;
#159 = ORIENTED_EDGE ( 'NONE', *, *, #59, .T. ) ;
#160 = CARTESIAN_POINT ( 'NONE',  ( 0.000000000000000000, 0.000000000000000000, 1.500000000000012657 ) ) ;
#161 = AXIS2_PLACEMENT_3D ( 'NONE', #196, #182, #27 ) ;
#162 = LINE ( 'NONE', #127, #49 ) ;
#163 = DIRECTION ( 'NONE',  ( 0.000000000000000000, 0.000000000000000000, 1.000000000000000000 ) ) ;
#164 = CARTESIAN_POINT ( 'NONE',  ( 6.996331263336979648E-16, 96.20000000000000284, 0.000000000000000000 ) ) ;
#165 = DIRECTION ( 'NONE',  ( 0.000000000000000000, 0.000000000000000000, 1.000000000000000000 ) ) ;
#166 =( LENGTH_UNIT ( ) NAMED_UNIT ( * ) SI_UNIT ( .MILLI., .METRE. ) );
#167 = DIRECTION ( 'NONE',  ( 0.000000000000000000, -1.000000000000000000, 0.000000000000000000 ) ) ;
#168 = CC_DESIGN_PERSON_AND_ORGANIZATION_ASSIGNMENT ( #101, #43, ( #36 ) ) ;
#169 = DESIGN_CONTEXT ( 'detailed design', #147, 'design' ) ;
#170 = PERSON_AND_ORGANIZATION ( #121, #171 ) ;
#171 = ORGANIZATION ( 'UNSPECIFIED', 'UNSPECIFIED', '' ) ;
#172 = APPROVAL_ROLE ( '' ) ;
#173 = APPROVAL_STATUS ( 'not_yet_approved' ) ;
#174 = VECTOR ( 'NONE', #41, 1000.000000000000114 ) ;
#175 = CARTESIAN_POINT ( 'NONE',  ( 1.500000000000012657, 0.000000000000000000, 0.000000000000000000 ) ) ;
#176 = DIRECTION ( 'NONE',  ( -0.000000000000000000, 1.000000000000000000, -0.000000000000000000 ) ) ;
#177 = EDGE_LOOP ( 'NONE', ( #73, #109, #210, #145 ) ) ;
#178 = AXIS2_PLACEMENT_3D ( 'NONE', #215, #115, #92 ) ;
#179 = CARTESIAN_POINT ( 'NONE',  ( 0.000000000000000000, 19.90000000000000213, 0.000000000000000000 ) ) ;
#180 = EDGE_CURVE ( 'Defeature ausgeführt1_0+Defeature ausgeführt1_1+Defeature ausgeführt1_1+Defeature ausgeführt1_1', #192, #212, #3, .T. ) ;
#181 = FACE_OUTER_BOUND ( 'NONE', #87, .T. ) ;
#182 = DIRECTION ( 'NONE',  ( -0.000000000000000000, 1.000000000000000000, -0.000000000000000000 ) ) ;
#183 = AXIS2_PLACEMENT_3D ( 'NONE', #8, #9, #12 ) ;
#184 = CALENDAR_DATE ( 2023, 27, 4 ) ;
#185 = COORDINATED_UNIVERSAL_TIME_OFFSET ( 1, 0, .AHEAD. ) ;
#186 = LOCAL_TIME ( 11, 3, 7.000000000000000000, #185 ) ;
#187 = APPLICATION_PROTOCOL_DEFINITION ( 'international standard', 'config_control_design', 1994, #147 ) ;
#188 = ADVANCED_FACE ( 'Defeature ausgeführt1_0', ( #61 ), #112, .F. ) ;
#189 = AXIS2_PLACEMENT_3D ( 'NONE', #105, #209, #126 ) ;
#190 = PLANE ( 'NONE',  #100 ) ;
#191 = ORIENTED_EDGE ( 'NONE', *, *, #57, .T. ) ;
#192 = VERTEX_POINT ( 'NONE', #152 ) ;
#193 = EDGE_CURVE ( 'NONE', #22, #192, #78, .T. ) ;
#194 = DIRECTION ( 'NONE',  ( -0.000000000000000000, 1.000000000000000000, -0.000000000000000000 ) ) ;
#195 = DIRECTION ( 'NONE',  ( 0.000000000000000000, 0.000000000000000000, 1.000000000000000000 ) ) ;
#196 = CARTESIAN_POINT ( 'NONE',  ( 0.000000000000000000, 0.000000000000000000, 0.000000000000000000 ) ) ;
#197 = PRODUCT_RELATED_PRODUCT_CATEGORY ( 'detail', '', ( #136 ) ) ;
#198 = CARTESIAN_POINT ( 'NONE',  ( 6.123233995736779101E-16, 19.90000000000000213, -5.000000000000010658 ) ) ;
#199 = AXIS2_PLACEMENT_3D ( 'NONE', #208, #108, #23 ) ;
#200 = COORDINATED_UNIVERSAL_TIME_OFFSET ( 1, 0, .AHEAD. ) ;
#201 = PERSON_AND_ORGANIZATION_ROLE ( 'creator' ) ;
#202 = AXIS2_PLACEMENT_3D ( 'NONE', #179, #47, #195 ) ;
#203 = APPROVAL_DATE_TIME ( #66, #14 ) ;
#204 = APPROVAL ( #173, 'UNSPECIFIED' ) ;
#205 = APPROVAL_ROLE ( '' ) ;
#206 = ORIENTED_EDGE ( 'NONE', *, *, #57, .F. ) ;
#207 = CIRCLE ( 'NONE', #161, 1.500000000000012657 ) ;
#208 = CARTESIAN_POINT ( 'NONE',  ( 0.000000000000000000, 96.20000000000000284, 0.000000000000000000 ) ) ;
#209 = DIRECTION ( 'NONE',  ( -0.000000000000000000, 1.000000000000000000, -0.000000000000000000 ) ) ;
#210 = ORIENTED_EDGE ( 'NONE', *, *, #120, .T. ) ;
#211 = APPROVAL_PERSON_ORGANIZATION ( #16, #14, #172 ) ;
#212 = VERTEX_POINT ( 'NONE', #219 ) ;
#213 = CC_DESIGN_APPROVAL ( #204, ( #37 ) ) ;
#214 = ADVANCED_FACE ( 'Defeature ausgeführt1_1', ( #181 ), #26, .T. ) ;
#215 = CARTESIAN_POINT ( 'NONE',  ( 0.000000000000000000, 101.9131267051646859, 0.000000000000000000 ) ) ;
#216 = CARTESIAN_POINT ( 'NONE',  ( 0.000000000000000000, 0.000000000000000000, 0.000000000000000000 ) ) ;
#217 = DIRECTION ( 'NONE',  ( -0.000000000000000000, 1.000000000000000000, -0.000000000000000000 ) ) ;
#218 = LOCAL_TIME ( 11, 3, 7.000000000000000000, #81 ) ;
#219 = CARTESIAN_POINT ( 'NONE',  ( 6.123233995736769241E-16, 96.20000000000000284, -5.000000000000000000 ) ) ;
#220 = CALENDAR_DATE ( 2023, 27, 4 ) ;
#221 = PERSON_AND_ORGANIZATION ( #121, #171 ) ;
#222 = EDGE_CURVE ( 'Defeature ausgeführt1_2+Defeature ausgeführt1_3+Defeature ausgeführt1_3+Defeature ausgeführt1_3', #19, #74, #207, .T. ) ;
#223 = APPROVAL_DATE_TIME ( #156, #204 ) ;
#224 = CONICAL_SURFACE ( 'NONE', #96, 1.500000000000012657, 0.1740988045756671765 ) ;
#225 = COORDINATED_UNIVERSAL_TIME_OFFSET ( 1, 0, .AHEAD. ) ;
ENDSEC;
END-ISO-10303-21;
