ISO-10303-21;
HEADER;
FILE_DESCRIPTION (( 'STEP AP214' ),
    '1' );
FILE_NAME ('42755~1.STEP',
    '2019-12-05T08:40:55',
    ( '' ),
    ( '' ),
    'SwSTEP 2.0',
    'SolidWorks 2018',
    '' );
FILE_SCHEMA (( 'AUTOMOTIVE_DESIGN' ));
ENDSEC;

DATA;
#1 = CIRCLE ( 'NONE', #155, 2.295854811567263010 ) ;
#2 = LINE ( 'NONE', #347, #319 ) ;
#3 = DIRECTION ( 'NONE',  ( 0.0000000000000000000, 0.0000000000000000000, -1.000000000000000000 ) ) ;
#4 = CARTESIAN_POINT ( 'NONE',  ( 0.0000000000000000000, 13.99999999999999822, 0.0000000000000000000 ) ) ;
#5 = SHAPE_DEFINITION_REPRESENTATION ( #36, #156 ) ;
#6 = FACE_OUTER_BOUND ( 'NONE', #240, .T. ) ;
#7 = VERTEX_POINT ( 'NONE', #242 ) ;
#8 = DIRECTION ( 'NONE',  ( 0.0000000000000000000, 1.000000000000000000, 0.0000000000000000000 ) ) ;
#9 = CARTESIAN_POINT ( 'NONE',  ( 0.0000000000000000000, 13.00000000000000178, 0.0000000000000000000 ) ) ;
#10 = DIRECTION ( 'NONE',  ( 0.0000000000000000000, 1.000000000000000000, 0.0000000000000000000 ) ) ;
#11 = CONICAL_SURFACE ( 'NONE', #58, 0.5000000000000022204, 0.7853981633974466137 ) ;
#12 = ORIENTED_EDGE ( 'NONE', *, *, #122, .F. ) ;
#13 = CARTESIAN_POINT ( 'NONE',  ( 0.0000000000000000000, 7.000000000000000000, 0.0000000000000000000 ) ) ;
#14 = DIRECTION ( 'NONE',  ( 0.0000000000000000000, 0.0000000000000000000, -1.000000000000000000 ) ) ;
#15 = EDGE_CURVE ( 'NONE', #75, #144, #39, .T. ) ;
#16 = DIRECTION ( 'NONE',  ( -0.0000000000000000000, -1.000000000000000000, -0.0000000000000000000 ) ) ;
#17 = LINE ( 'NONE', #303, #300 ) ;
#18 =( LENGTH_UNIT ( ) NAMED_UNIT ( * ) SI_UNIT ( .MILLI., .METRE. ) );
#19 = ORIENTED_EDGE ( 'NONE', *, *, #228, .T. ) ;
#20 = DIRECTION ( 'NONE',  ( 0.0000000000000000000, 0.0000000000000000000, 1.000000000000000000 ) ) ;
#21 = EDGE_CURVE ( 'NONE', #7, #341, #322, .T. ) ;
#22 = SURFACE_STYLE_USAGE ( .BOTH. , #257 ) ;
#23 = CIRCLE ( 'NONE', #151, 0.5999999999999998668 ) ;
#24 = ORIENTED_EDGE ( 'NONE', *, *, #157, .T. ) ;
#25 = APPLICATION_PROTOCOL_DEFINITION ( 'draft international standard', 'automotive_design', 1998, #204 ) ;
#26 = CIRCLE ( 'NONE', #267, 0.5999999999999998668 ) ;
#27 = ORIENTED_EDGE ( 'NONE', *, *, #93, .F. ) ;
#28 = ADVANCED_FACE ( 'NONE', ( #358 ), #152, .T. ) ;
#29 = ADVANCED_FACE ( 'NONE', ( #225 ), #134, .T. ) ;
#30 = CARTESIAN_POINT ( 'NONE',  ( 0.0000000000000000000, 13.00000000000000178, 0.0000000000000000000 ) ) ;
#31 = AXIS2_PLACEMENT_3D ( 'NONE', #297, #62, #91 ) ;
#32 = SURFACE_STYLE_FILL_AREA ( #177 ) ;
#33 = ADVANCED_FACE ( 'NONE', ( #232 ), #332, .T. ) ;
#34 = EDGE_LOOP ( 'NONE', ( #124, #301, #265, #27 ) ) ;
#35 = DIRECTION ( 'NONE',  ( 0.0000000000000000000, 0.0000000000000000000, 1.000000000000000000 ) ) ;
#36 = PRODUCT_DEFINITION_SHAPE ( 'NONE', 'NONE',  #66 ) ;
#37 = EDGE_CURVE ( 'NONE', #80, #372, #2, .T. ) ;
#38 = CIRCLE ( 'NONE', #107, 0.5000000000000022204 ) ;
#39 = CIRCLE ( 'NONE', #293, 2.700000000000000178 ) ;
#40 = ORIENTED_EDGE ( 'NONE', *, *, #126, .T. ) ;
#41 = DIRECTION ( 'NONE',  ( 0.0000000000000000000, -0.0000000000000000000, 1.000000000000000000 ) ) ;
#42 = DIRECTION ( 'NONE',  ( 0.0000000000000000000, 0.0000000000000000000, 1.000000000000000000 ) ) ;
#43 = EDGE_CURVE ( 'NONE', #144, #75, #148, .T. ) ;
#44 = DIRECTION ( 'NONE',  ( 0.0000000000000000000, 0.0000000000000000000, -1.000000000000000000 ) ) ;
#45 = PRODUCT ( '42755~1', '42755~1', '', ( #256 ) ) ;
#46 = CIRCLE ( 'NONE', #206, 1.000000000000000000 ) ;
#47 = FILL_AREA_STYLE_COLOUR ( '', #210 ) ;
#48 = ORIENTED_EDGE ( 'NONE', *, *, #187, .F. ) ;
#49 = ORIENTED_EDGE ( 'NONE', *, *, #369, .F. ) ;
#50 =( GEOMETRIC_REPRESENTATION_CONTEXT ( 3 ) GLOBAL_UNCERTAINTY_ASSIGNED_CONTEXT ( ( #201 ) ) GLOBAL_UNIT_ASSIGNED_CONTEXT ( ( #18, #106, #226 ) ) REPRESENTATION_CONTEXT ( 'NONE', 'WORKASPACE' ) );
#51 = DIRECTION ( 'NONE',  ( 0.0000000000000000000, 0.0000000000000000000, -1.000000000000000000 ) ) ;
#52 = CARTESIAN_POINT ( 'NONE',  ( 0.0000000000000000000, 13.39999999999999858, 0.0000000000000000000 ) ) ;
#53 = CIRCLE ( 'NONE', #274, 1.000000000000000000 ) ;
#54 = CARTESIAN_POINT ( 'NONE',  ( 0.0000000000000000000, 0.0000000000000000000, 0.0000000000000000000 ) ) ;
#55 = EDGE_LOOP ( 'NONE', ( #160, #292 ) ) ;
#56 = FILL_AREA_STYLE_COLOUR ( '', #268 ) ;
#57 = DIRECTION ( 'NONE',  ( 0.0000000000000000000, 0.0000000000000000000, -1.000000000000000000 ) ) ;
#58 = AXIS2_PLACEMENT_3D ( 'NONE', #195, #333, #221 ) ;
#59 = CYLINDRICAL_SURFACE ( 'NONE', #218, 2.700000000000000178 ) ;
#60 = ORIENTED_EDGE ( 'NONE', *, *, #277, .F. ) ;
#61 = CIRCLE ( 'NONE', #131, 2.700000000000000178 ) ;
#62 = DIRECTION ( 'NONE',  ( -0.0000000000000000000, -1.000000000000000000, -0.0000000000000000000 ) ) ;
#63 = FACE_OUTER_BOUND ( 'NONE', #69, .T. ) ;
#64 = VERTEX_POINT ( 'NONE', #244 ) ;
#65 = VERTEX_POINT ( 'NONE', #278 ) ;
#66 = PRODUCT_DEFINITION ( 'UNKNOWN', '', #88, #95 ) ;
#67 = CARTESIAN_POINT ( 'NONE',  ( 0.0000000000000000000, 13.00000000000000178, 0.0000000000000000000 ) ) ;
#68 = CARTESIAN_POINT ( 'NONE',  ( 0.0000000000000000000, 6.999999999999999112, 0.0000000000000000000 ) ) ;
#69 = EDGE_LOOP ( 'NONE', ( #262, #168, #349, #261 ) ) ;
#70 = PLANE ( 'NONE',  #113 ) ;
#71 = ORIENTED_EDGE ( 'NONE', *, *, #271, .T. ) ;
#72 = DIRECTION ( 'NONE',  ( 0.0000000000000000000, 0.0000000000000000000, -1.000000000000000000 ) ) ;
#73 = LINE ( 'NONE', #259, #203 ) ;
#74 = AXIS2_PLACEMENT_3D ( 'NONE', #52, #331, #140 ) ;
#75 = VERTEX_POINT ( 'NONE', #123 ) ;
#76 = DIRECTION ( 'NONE',  ( 0.0000000000000000000, 0.0000000000000000000, 1.000000000000000000 ) ) ;
#77 = DIRECTION ( 'NONE',  ( -0.0000000000000000000, -1.000000000000000000, -0.0000000000000000000 ) ) ;
#78 = CARTESIAN_POINT ( 'NONE',  ( 0.0000000000000000000, 6.999999999999999112, 0.0000000000000000000 ) ) ;
#79 = ORIENTED_EDGE ( 'NONE', *, *, #277, .T. ) ;
#80 = VERTEX_POINT ( 'NONE', #215 ) ;
#81 = AXIS2_PLACEMENT_3D ( 'NONE', #30, #208, #241 ) ;
#82 = DIRECTION ( 'NONE',  ( 0.0000000000000000000, 1.000000000000000000, 0.0000000000000000000 ) ) ;
#83 = DIRECTION ( 'NONE',  ( 0.0000000000000000000, 0.0000000000000000000, -1.000000000000000000 ) ) ;
#84 = DIRECTION ( 'NONE',  ( -0.0000000000000000000, -1.000000000000000000, -0.0000000000000000000 ) ) ;
#85 = CYLINDRICAL_SURFACE ( 'NONE', #186, 2.700000000000000178 ) ;
#86 = LINE ( 'NONE', #354, #318 ) ;
#87 = CARTESIAN_POINT ( 'NONE',  ( 2.493438674675425337E-16, 13.99999999999999822, -1.776239569296599319 ) ) ;
#88 = PRODUCT_DEFINITION_FORMATION_WITH_SPECIFIED_SOURCE ( 'ANY', '', #45, .NOT_KNOWN. ) ;
#89 = EDGE_LOOP ( 'NONE', ( #112, #169 ) ) ;
#90 = ORIENTED_EDGE ( 'NONE', *, *, #126, .F. ) ;
#91 = DIRECTION ( 'NONE',  ( 0.0000000000000000000, 0.0000000000000000000, -1.000000000000000000 ) ) ;
#92 = VECTOR ( 'NONE', #130, 1000.000000000000000 ) ;
#93 = EDGE_CURVE ( 'NONE', #108, #144, #94, .T. ) ;
#94 = LINE ( 'NONE', #275, #249 ) ;
#95 = PRODUCT_DEFINITION_CONTEXT ( 'detailed design', #204, 'design' ) ;
#96 = ORIENTED_EDGE ( 'NONE', *, *, #228, .F. ) ;
#97 = CARTESIAN_POINT ( 'NONE',  ( 1.000000000000000000, 6.999999999999999112, 0.0000000000000000000 ) ) ;
#98 = AXIS2_PLACEMENT_3D ( 'NONE', #133, #284, #20 ) ;
#99 = DIRECTION ( 'NONE',  ( 0.0000000000000000000, 0.0000000000000000000, -1.000000000000000000 ) ) ;
#100 = CARTESIAN_POINT ( 'NONE',  ( 0.0000000000000000000, 13.70000000000000107, -2.295854811567263010 ) ) ;
#101 = EDGE_CURVE ( 'NONE', #362, #269, #367, .T. ) ;
#102 = SURFACE_STYLE_FILL_AREA ( #252 ) ;
#103 = DIRECTION ( 'NONE',  ( 0.0000000000000000000, -0.8660254037844380415, -0.5000000000000012212 ) ) ;
#104 = ORIENTED_EDGE ( 'NONE', *, *, #239, .F. ) ;
#105 = DIRECTION ( 'NONE',  ( 0.0000000000000000000, 0.7071067811865487940, 0.7071067811865463515 ) ) ;
#106 =( NAMED_UNIT ( * ) PLANE_ANGLE_UNIT ( ) SI_UNIT ( $, .RADIAN. ) );
#107 = AXIS2_PLACEMENT_3D ( 'NONE', #54, #84, #83 ) ;
#108 = VERTEX_POINT ( 'NONE', #100 ) ;
#109 = DIRECTION ( 'NONE',  ( 0.0000000000000000000, 1.000000000000000000, 0.0000000000000000000 ) ) ;
#110 = VERTEX_POINT ( 'NONE', #159 ) ;
#111 = SURFACE_STYLE_USAGE ( .BOTH. , #307 ) ;
#112 = ORIENTED_EDGE ( 'NONE', *, *, #137, .T. ) ;
#113 = AXIS2_PLACEMENT_3D ( 'NONE', #97, #324, #188 ) ;
#114 = DIRECTION ( 'NONE',  ( 0.0000000000000000000, 1.000000000000000000, 0.0000000000000000000 ) ) ;
#115 = PRESENTATION_LAYER_ASSIGNMENT (  '', '', ( #166 ) ) ;
#116 =( NAMED_UNIT ( * ) PLANE_ANGLE_UNIT ( ) SI_UNIT ( $, .RADIAN. ) );
#117 = EDGE_LOOP ( 'NONE', ( #143, #118, #19, #48 ) ) ;
#118 = ORIENTED_EDGE ( 'NONE', *, *, #345, .F. ) ;
#119 = ADVANCED_FACE ( 'NONE', ( #6 ), #59, .T. ) ;
#120 =( GEOMETRIC_REPRESENTATION_CONTEXT ( 3 ) GLOBAL_UNCERTAINTY_ASSIGNED_CONTEXT ( ( #125 ) ) GLOBAL_UNIT_ASSIGNED_CONTEXT ( ( #315, #116, #198 ) ) REPRESENTATION_CONTEXT ( 'NONE', 'WORKASPACE' ) );
#121 = CLOSED_SHELL ( 'NONE', ( #264, #317, #33, #320, #29, #183, #145, #119, #153, #209, #28, #236, #150 ) ) ;
#122 = EDGE_CURVE ( 'NONE', #254, #75, #17, .T. ) ;
#123 = CARTESIAN_POINT ( 'NONE',  ( 3.306546357697853733E-16, 13.00000000000000178, 2.700000000000000178 ) ) ;
#124 = ORIENTED_EDGE ( 'NONE', *, *, #239, .T. ) ;
#125 = UNCERTAINTY_MEASURE_WITH_UNIT (LENGTH_MEASURE( 1.000000000000000082E-05 ), #315, 'distance_accuracy_value', 'NONE');
#126 = EDGE_CURVE ( 'NONE', #75, #110, #86, .T. ) ;
#127 = LINE ( 'NONE', #281, #260 ) ;
#128 = DIRECTION ( 'NONE',  ( -0.0000000000000000000, -1.000000000000000000, -0.0000000000000000000 ) ) ;
#129 = AXIS2_PLACEMENT_3D ( 'NONE', #346, #214, #3 ) ;
#130 = DIRECTION ( 'NONE',  ( -0.0000000000000000000, -1.000000000000000000, -0.0000000000000000000 ) ) ;
#131 = AXIS2_PLACEMENT_3D ( 'NONE', #13, #77, #44 ) ;
#132 = CIRCLE ( 'NONE', #238, 0.5000000000000022204 ) ;
#133 = CARTESIAN_POINT ( 'NONE',  ( 0.0000000000000000000, 13.70000000000000107, 0.0000000000000000000 ) ) ;
#134 = CONICAL_SURFACE ( 'NONE', #81, 2.700000000000000178, 0.5235987755983002589 ) ;
#135 = ORIENTED_EDGE ( 'NONE', *, *, #344, .T. ) ;
#136 = DIRECTION ( 'NONE',  ( 0.0000000000000000000, 0.0000000000000000000, 1.000000000000000000 ) ) ;
#137 = EDGE_CURVE ( 'NONE', #217, #110, #205, .T. ) ;
#138 = CARTESIAN_POINT ( 'NONE',  ( 0.0000000000000000000, 0.0000000000000000000, 0.0000000000000000000 ) ) ;
#139 = AXIS2_PLACEMENT_3D ( 'NONE', #368, #314, #173 ) ;
#140 = DIRECTION ( 'NONE',  ( 0.0000000000000000000, 0.0000000000000000000, 1.000000000000000000 ) ) ;
#141 = CARTESIAN_POINT ( 'NONE',  ( 1.224646799147353207E-16, 0.4999999999999995559, 1.000000000000000000 ) ) ;
#142 = CARTESIAN_POINT ( 'NONE',  ( 0.0000000000000000000, 0.0000000000000000000, 0.0000000000000000000 ) ) ;
#143 = ORIENTED_EDGE ( 'NONE', *, *, #246, .F. ) ;
#144 = VERTEX_POINT ( 'NONE', #355 ) ;
#145 = ADVANCED_FACE ( 'NONE', ( #235 ), #296, .T. ) ;
#146 = DIRECTION ( 'NONE',  ( -0.0000000000000000000, -1.000000000000000000, -0.0000000000000000000 ) ) ;
#147 = AXIS2_PLACEMENT_3D ( 'NONE', #304, #273, #299 ) ;
#148 = CIRCLE ( 'NONE', #308, 2.700000000000000178 ) ;
#149 = EDGE_LOOP ( 'NONE', ( #216, #40, #194, #270 ) ) ;
#150 = ADVANCED_FACE ( 'NONE', ( #287 ), #184, .T. ) ;
#151 = AXIS2_PLACEMENT_3D ( 'NONE', #309, #255, #136 ) ;
#152 = PLANE ( 'NONE',  #129 ) ;
#153 = ADVANCED_FACE ( 'NONE', ( #371, #348 ), #70, .T. ) ;
#154 = FACE_OUTER_BOUND ( 'NONE', #55, .T. ) ;
#155 = AXIS2_PLACEMENT_3D ( 'NONE', #258, #146, #285 ) ;
#156 = ADVANCED_BREP_SHAPE_REPRESENTATION ( '42755~1', ( #289, #139 ), #175 ) ;
#157 = EDGE_CURVE ( 'NONE', #144, #217, #311, .T. ) ;
#158 = CIRCLE ( 'NONE', #251, 1.000000000000000000 ) ;
#159 = CARTESIAN_POINT ( 'NONE',  ( 3.306546357697853733E-16, 7.000000000000000000, 2.700000000000000178 ) ) ;
#160 = ORIENTED_EDGE ( 'NONE', *, *, #21, .T. ) ;
#161 = CARTESIAN_POINT ( 'NONE',  ( 2.122649730810373114, 13.99999999999999822, 0.0000000000000000000 ) ) ;
#162 = DIRECTION ( 'NONE',  ( 0.0000000000000000000, 0.0000000000000000000, -1.000000000000000000 ) ) ;
#163 = CARTESIAN_POINT ( 'NONE',  ( 0.0000000000000000000, 0.0000000000000000000, -1.000000000000000000 ) ) ;
#164 = FACE_OUTER_BOUND ( 'NONE', #149, .T. ) ;
#165 = EDGE_LOOP ( 'NONE', ( #312, #253, #178, #343 ) ) ;
#166 = STYLED_ITEM ( 'NONE', ( #231 ), #289 ) ;
#167 = CARTESIAN_POINT ( 'NONE',  ( 0.0000000000000000000, 0.0000000000000000000, 0.0000000000000000000 ) ) ;
#168 = ORIENTED_EDGE ( 'NONE', *, *, #171, .T. ) ;
#169 = ORIENTED_EDGE ( 'NONE', *, *, #310, .T. ) ;
#170 = CARTESIAN_POINT ( 'NONE',  ( 3.059078801995376447E-16, 13.70000000000000107, 2.295854811567263010 ) ) ;
#171 = EDGE_CURVE ( 'NONE', #64, #362, #158, .T. ) ;
#172 =( NAMED_UNIT ( * ) SI_UNIT ( $, .STERADIAN. ) SOLID_ANGLE_UNIT ( ) );
#173 = DIRECTION ( 'NONE',  ( 1.000000000000000000, 0.0000000000000000000, 0.0000000000000000000 ) ) ;
#174 = VECTOR ( 'NONE', #356, 1000.000000000000000 ) ;
#175 =( GEOMETRIC_REPRESENTATION_CONTEXT ( 3 ) GLOBAL_UNCERTAINTY_ASSIGNED_CONTEXT ( ( #245 ) ) GLOBAL_UNIT_ASSIGNED_CONTEXT ( ( #337, #290, #172 ) ) REPRESENTATION_CONTEXT ( 'NONE', 'WORKASPACE' ) );
#176 = DIRECTION ( 'NONE',  ( 8.659560562354918067E-17, 0.7071067811865487940, -0.7071067811865463515 ) ) ;
#177 = FILL_AREA_STYLE ('',( #56 ) ) ;
#178 = ORIENTED_EDGE ( 'NONE', *, *, #37, .T. ) ;
#179 = EDGE_LOOP ( 'NONE', ( #12, #340, #196, #185 ) ) ;
#180 = AXIS2_PLACEMENT_3D ( 'NONE', #167, #250, #76 ) ;
#181 = CIRCLE ( 'NONE', #321, 1.000000000000000000 ) ;
#182 = EDGE_LOOP ( 'NONE', ( #71, #237, #79, #363 ) ) ;
#183 = ADVANCED_FACE ( 'NONE', ( #154 ), #327, .T. ) ;
#184 = TOROIDAL_SURFACE ( 'NONE', #233, 1.776239569296599319, 0.5999999999999999778 ) ;
#185 = ORIENTED_EDGE ( 'NONE', *, *, #15, .F. ) ;
#186 = AXIS2_PLACEMENT_3D ( 'NONE', #138, #280, #51 ) ;
#187 = EDGE_CURVE ( 'NONE', #341, #7, #199, .T. ) ;
#188 = DIRECTION ( 'NONE',  ( 0.0000000000000000000, 0.0000000000000000000, -1.000000000000000000 ) ) ;
#189 = EDGE_LOOP ( 'NONE', ( #276, #316 ) ) ;
#190 = CARTESIAN_POINT ( 'NONE',  ( 0.0000000000000000000, 0.0000000000000000000, -2.700000000000000178 ) ) ;
#191 = DIRECTION ( 'NONE',  ( -0.0000000000000000000, -1.000000000000000000, -0.0000000000000000000 ) ) ;
#192 = DIRECTION ( 'NONE',  ( 1.000000000000000000, -0.0000000000000000000, 1.224646799147353207E-16 ) ) ;
#193 = CIRCLE ( 'NONE', #98, 2.295854811567263010 ) ;
#194 = ORIENTED_EDGE ( 'NONE', *, *, #137, .F. ) ;
#195 = CARTESIAN_POINT ( 'NONE',  ( 0.0000000000000000000, 0.0000000000000000000, 0.0000000000000000000 ) ) ;
#196 = ORIENTED_EDGE ( 'NONE', *, *, #93, .T. ) ;
#197 = DIRECTION ( 'NONE',  ( 0.0000000000000000000, 0.0000000000000000000, -1.000000000000000000 ) ) ;
#198 =( NAMED_UNIT ( * ) SI_UNIT ( $, .STERADIAN. ) SOLID_ANGLE_UNIT ( ) );
#199 = CIRCLE ( 'NONE', #350, 1.776239569296599319 ) ;
#200 = EDGE_LOOP ( 'NONE', ( #49, #222, #60, #227 ) ) ;
#201 = UNCERTAINTY_MEASURE_WITH_UNIT (LENGTH_MEASURE( 1.000000000000000082E-05 ), #18, 'distance_accuracy_value', 'NONE');
#202 = APPLICATION_PROTOCOL_DEFINITION ( 'draft international standard', 'automotive_design', 1998, #234 ) ;
#203 = VECTOR ( 'NONE', #176, 1000.000000000000000 ) ;
#204 = APPLICATION_CONTEXT ( 'automotive_design' ) ;
#205 = CIRCLE ( 'NONE', #211, 2.700000000000000178 ) ;
#206 = AXIS2_PLACEMENT_3D ( 'NONE', #365, #114, #230 ) ;
#207 = ORIENTED_EDGE ( 'NONE', *, *, #369, .T. ) ;
#208 = DIRECTION ( 'NONE',  ( -0.0000000000000000000, -1.000000000000000000, -0.0000000000000000000 ) ) ;
#209 = ADVANCED_FACE ( 'NONE', ( #63 ), #330, .T. ) ;
#210 = COLOUR_RGB ( '',0.7529411764705882248, 0.7529411764705882248, 0.7529411764705882248 ) ;
#211 = AXIS2_PLACEMENT_3D ( 'NONE', #305, #128, #351 ) ;
#212 = EDGE_LOOP ( 'NONE', ( #135, #207 ) ) ;
#213 = ORIENTED_EDGE ( 'NONE', *, *, #21, .F. ) ;
#214 = DIRECTION ( 'NONE',  ( 0.0000000000000000000, -1.000000000000000000, -0.0000000000000000000 ) ) ;
#215 = CARTESIAN_POINT ( 'NONE',  ( 0.0000000000000000000, 0.0000000000000000000, 0.5000000000000022204 ) ) ;
#216 = ORIENTED_EDGE ( 'NONE', *, *, #43, .T. ) ;
#217 = VERTEX_POINT ( 'NONE', #335 ) ;
#218 = AXIS2_PLACEMENT_3D ( 'NONE', #220, #219, #353 ) ;
#219 = DIRECTION ( 'NONE',  ( -0.0000000000000000000, -1.000000000000000000, -0.0000000000000000000 ) ) ;
#220 = CARTESIAN_POINT ( 'NONE',  ( 0.0000000000000000000, 0.0000000000000000000, 0.0000000000000000000 ) ) ;
#221 = DIRECTION ( 'NONE',  ( 0.0000000000000000000, 0.0000000000000000000, 1.000000000000000000 ) ) ;
#222 = ORIENTED_EDGE ( 'NONE', *, *, #366, .T. ) ;
#223 = EDGE_LOOP ( 'NONE', ( #104, #279, #213, #96 ) ) ;
#224 = AXIS2_PLACEMENT_3D ( 'NONE', #161, #8, #41 ) ;
#225 = FACE_OUTER_BOUND ( 'NONE', #34, .T. ) ;
#226 =( NAMED_UNIT ( * ) SI_UNIT ( $, .STERADIAN. ) SOLID_ANGLE_UNIT ( ) );
#227 = ORIENTED_EDGE ( 'NONE', *, *, #37, .F. ) ;
#228 = EDGE_CURVE ( 'NONE', #254, #7, #23, .T. ) ;
#229 = CARTESIAN_POINT ( 'NONE',  ( 0.0000000000000000000, 6.999999999999999112, -1.000000000000000000 ) ) ;
#230 = DIRECTION ( 'NONE',  ( 0.0000000000000000000, 0.0000000000000000000, -1.000000000000000000 ) ) ;
#231 = PRESENTATION_STYLE_ASSIGNMENT (( #111 ) ) ;
#232 = FACE_OUTER_BOUND ( 'NONE', #182, .T. ) ;
#233 = AXIS2_PLACEMENT_3D ( 'NONE', #248, #10, #42 ) ;
#234 = APPLICATION_CONTEXT ( 'automotive_design' ) ;
#235 = FACE_OUTER_BOUND ( 'NONE', #179, .T. ) ;
#236 = ADVANCED_FACE ( 'NONE', ( #295 ), #11, .T. ) ;
#237 = ORIENTED_EDGE ( 'NONE', *, *, #291, .T. ) ;
#238 = AXIS2_PLACEMENT_3D ( 'NONE', #142, #338, #57 ) ;
#239 = EDGE_CURVE ( 'NONE', #108, #254, #193, .T. ) ;
#240 = EDGE_LOOP ( 'NONE', ( #90, #306, #24, #336 ) ) ;
#241 = DIRECTION ( 'NONE',  ( 0.0000000000000000000, 0.0000000000000000000, -1.000000000000000000 ) ) ;
#242 = CARTESIAN_POINT ( 'NONE',  ( 0.0000000000000000000, 13.99999999999999822, 1.776239569296599319 ) ) ;
#243 = STYLED_ITEM ( 'NONE', ( #326 ), #156 ) ;
#244 = CARTESIAN_POINT ( 'NONE',  ( 1.224646799147353207E-16, 6.999999999999999112, 1.000000000000000000 ) ) ;
#245 = UNCERTAINTY_MEASURE_WITH_UNIT (LENGTH_MEASURE( 1.000000000000000082E-05 ), #337, 'distance_accuracy_value', 'NONE');
#246 = EDGE_CURVE ( 'NONE', #108, #341, #26, .T. ) ;
#247 = DIRECTION ( 'NONE',  ( -0.0000000000000000000, -1.000000000000000000, -0.0000000000000000000 ) ) ;
#248 = CARTESIAN_POINT ( 'NONE',  ( 0.0000000000000000000, 13.39999999999999858, 0.0000000000000000000 ) ) ;
#249 = VECTOR ( 'NONE', #103, 999.9999999999998863 ) ;
#250 = DIRECTION ( 'NONE',  ( 0.0000000000000000000, 1.000000000000000000, 0.0000000000000000000 ) ) ;
#251 = AXIS2_PLACEMENT_3D ( 'NONE', #68, #272, #99 ) ;
#252 = FILL_AREA_STYLE ('',( #47 ) ) ;
#253 = ORIENTED_EDGE ( 'NONE', *, *, #344, .F. ) ;
#254 = VERTEX_POINT ( 'NONE', #170 ) ;
#255 = DIRECTION ( 'NONE',  ( -1.000000000000000000, 0.0000000000000000000, 0.0000000000000000000 ) ) ;
#256 = PRODUCT_CONTEXT ( 'NONE', #234, 'mechanical' ) ;
#257 = SURFACE_SIDE_STYLE ('',( #32 ) ) ;
#258 = CARTESIAN_POINT ( 'NONE',  ( 0.0000000000000000000, 13.70000000000000107, 0.0000000000000000000 ) ) ;
#259 = CARTESIAN_POINT ( 'NONE',  ( 6.123233995736791920E-17, 0.0000000000000000000, -0.5000000000000022204 ) ) ;
#260 = VECTOR ( 'NONE', #16, 1000.000000000000000 ) ;
#261 = ORIENTED_EDGE ( 'NONE', *, *, #360, .T. ) ;
#262 = ORIENTED_EDGE ( 'NONE', *, *, #291, .F. ) ;
#263 = AXIS2_PLACEMENT_3D ( 'NONE', #4, #323, #35 ) ;
#264 = ADVANCED_FACE ( 'NONE', ( #357 ), #286, .T. ) ;
#265 = ORIENTED_EDGE ( 'NONE', *, *, #43, .F. ) ;
#266 = DIRECTION ( 'NONE',  ( -0.0000000000000000000, -1.000000000000000000, -0.0000000000000000000 ) ) ;
#267 = AXIS2_PLACEMENT_3D ( 'NONE', #283, #192, #329 ) ;
#268 = COLOUR_RGB ( '',0.7529411764705882248, 0.7529411764705882248, 0.7529411764705882248 ) ;
#269 = VERTEX_POINT ( 'NONE', #313 ) ;
#270 = ORIENTED_EDGE ( 'NONE', *, *, #157, .F. ) ;
#271 = EDGE_CURVE ( 'NONE', #362, #64, #181, .T. ) ;
#272 = DIRECTION ( 'NONE',  ( -0.0000000000000000000, -1.000000000000000000, -0.0000000000000000000 ) ) ;
#273 = DIRECTION ( 'NONE',  ( -0.0000000000000000000, -1.000000000000000000, -0.0000000000000000000 ) ) ;
#274 = AXIS2_PLACEMENT_3D ( 'NONE', #359, #109, #197 ) ;
#275 = CARTESIAN_POINT ( 'NONE',  ( 0.0000000000000000000, 13.00000000000000178, -2.700000000000000178 ) ) ;
#276 = ORIENTED_EDGE ( 'NONE', *, *, #271, .F. ) ;
#277 = EDGE_CURVE ( 'NONE', #372, #269, #53, .T. ) ;
#278 = CARTESIAN_POINT ( 'NONE',  ( 9.184850993605161996E-17, 0.0000000000000000000, -0.5000000000000022204 ) ) ;
#279 = ORIENTED_EDGE ( 'NONE', *, *, #246, .T. ) ;
#280 = DIRECTION ( 'NONE',  ( -0.0000000000000000000, -1.000000000000000000, -0.0000000000000000000 ) ) ;
#281 = CARTESIAN_POINT ( 'NONE',  ( 1.224646799147353207E-16, 0.0000000000000000000, 1.000000000000000000 ) ) ;
#282 = MECHANICAL_DESIGN_GEOMETRIC_PRESENTATION_REPRESENTATION (  '', ( #166 ), #50 ) ;
#283 = CARTESIAN_POINT ( 'NONE',  ( 2.175266103057953238E-16, 13.39999999999999858, -1.776239569296599319 ) ) ;
#284 = DIRECTION ( 'NONE',  ( -0.0000000000000000000, -1.000000000000000000, -0.0000000000000000000 ) ) ;
#285 = DIRECTION ( 'NONE',  ( 0.0000000000000000000, 0.0000000000000000000, 1.000000000000000000 ) ) ;
#286 = TOROIDAL_SURFACE ( 'NONE', #74, 1.776239569296599319, 0.5999999999999999778 ) ;
#287 = FACE_OUTER_BOUND ( 'NONE', #117, .T. ) ;
#288 = MECHANICAL_DESIGN_GEOMETRIC_PRESENTATION_REPRESENTATION (  '', ( #243 ), #120 ) ;
#289 = MANIFOLD_SOLID_BREP ( 'Verrundung1', #121 ) ;
#290 =( NAMED_UNIT ( * ) PLANE_ANGLE_UNIT ( ) SI_UNIT ( $, .RADIAN. ) );
#291 = EDGE_CURVE ( 'NONE', #64, #372, #127, .T. ) ;
#292 = ORIENTED_EDGE ( 'NONE', *, *, #187, .T. ) ;
#293 = AXIS2_PLACEMENT_3D ( 'NONE', #67, #266, #294 ) ;
#294 = DIRECTION ( 'NONE',  ( 0.0000000000000000000, 0.0000000000000000000, -1.000000000000000000 ) ) ;
#295 = FACE_OUTER_BOUND ( 'NONE', #165, .T. ) ;
#296 = CONICAL_SURFACE ( 'NONE', #339, 2.700000000000000178, 0.5235987755983002589 ) ;
#297 = CARTESIAN_POINT ( 'NONE',  ( 0.0000000000000000000, 0.0000000000000000000, 0.0000000000000000000 ) ) ;
#298 = PRESENTATION_LAYER_ASSIGNMENT (  '', '', ( #243 ) ) ;
#299 = DIRECTION ( 'NONE',  ( 0.0000000000000000000, 0.0000000000000000000, -1.000000000000000000 ) ) ;
#300 = VECTOR ( 'NONE', #325, 999.9999999999998863 ) ;
#301 = ORIENTED_EDGE ( 'NONE', *, *, #122, .T. ) ;
#302 = DIRECTION ( 'NONE',  ( -0.0000000000000000000, -1.000000000000000000, -0.0000000000000000000 ) ) ;
#303 = CARTESIAN_POINT ( 'NONE',  ( 3.306546357697853733E-16, 13.00000000000000178, 2.700000000000000178 ) ) ;
#304 = CARTESIAN_POINT ( 'NONE',  ( 0.0000000000000000000, 0.0000000000000000000, 0.0000000000000000000 ) ) ;
#305 = CARTESIAN_POINT ( 'NONE',  ( 0.0000000000000000000, 7.000000000000000000, 0.0000000000000000000 ) ) ;
#306 = ORIENTED_EDGE ( 'NONE', *, *, #15, .T. ) ;
#307 = SURFACE_SIDE_STYLE ('',( #102 ) ) ;
#308 = AXIS2_PLACEMENT_3D ( 'NONE', #328, #302, #162 ) ;
#309 = CARTESIAN_POINT ( 'NONE',  ( 0.0000000000000000000, 13.39999999999999858, 1.776239569296599319 ) ) ;
#310 = EDGE_CURVE ( 'NONE', #110, #217, #61, .T. ) ;
#311 = LINE ( 'NONE', #190, #92 ) ;
#312 = ORIENTED_EDGE ( 'NONE', *, *, #366, .F. ) ;
#313 = CARTESIAN_POINT ( 'NONE',  ( 0.0000000000000000000, 0.4999999999999995559, -1.000000000000000000 ) ) ;
#314 = DIRECTION ( 'NONE',  ( 0.0000000000000000000, 0.0000000000000000000, 1.000000000000000000 ) ) ;
#315 =( LENGTH_UNIT ( ) NAMED_UNIT ( * ) SI_UNIT ( .MILLI., .METRE. ) );
#316 = ORIENTED_EDGE ( 'NONE', *, *, #171, .F. ) ;
#317 = ADVANCED_FACE ( 'NONE', ( #352 ), #342, .T. ) ;
#318 = VECTOR ( 'NONE', #191, 1000.000000000000000 ) ;
#319 = VECTOR ( 'NONE', #105, 1000.000000000000000 ) ;
#320 = ADVANCED_FACE ( 'NONE', ( #164 ), #85, .T. ) ;
#321 = AXIS2_PLACEMENT_3D ( 'NONE', #78, #364, #14 ) ;
#322 = CIRCLE ( 'NONE', #263, 1.776239569296599319 ) ;
#323 = DIRECTION ( 'NONE',  ( 0.0000000000000000000, 1.000000000000000000, 0.0000000000000000000 ) ) ;
#324 = DIRECTION ( 'NONE',  ( 0.0000000000000000000, -1.000000000000000000, -0.0000000000000000000 ) ) ;
#325 = DIRECTION ( 'NONE',  ( 6.123233995736782060E-17, -0.8660254037844380415, 0.5000000000000012212 ) ) ;
#326 = PRESENTATION_STYLE_ASSIGNMENT (( #22 ) ) ;
#327 = PLANE ( 'NONE',  #224 ) ;
#328 = CARTESIAN_POINT ( 'NONE',  ( 0.0000000000000000000, 13.00000000000000178, 0.0000000000000000000 ) ) ;
#329 = DIRECTION ( 'NONE',  ( 1.224646799147353207E-16, 0.0000000000000000000, -1.000000000000000000 ) ) ;
#330 = CYLINDRICAL_SURFACE ( 'NONE', #147, 1.000000000000000000 ) ;
#331 = DIRECTION ( 'NONE',  ( 0.0000000000000000000, 1.000000000000000000, 0.0000000000000000000 ) ) ;
#332 = CYLINDRICAL_SURFACE ( 'NONE', #31, 1.000000000000000000 ) ;
#333 = DIRECTION ( 'NONE',  ( 0.0000000000000000000, 1.000000000000000000, 0.0000000000000000000 ) ) ;
#334 = DIRECTION ( 'NONE',  ( 0.0000000000000000000, 0.0000000000000000000, 1.000000000000000000 ) ) ;
#335 = CARTESIAN_POINT ( 'NONE',  ( 0.0000000000000000000, 7.000000000000000000, -2.700000000000000178 ) ) ;
#336 = ORIENTED_EDGE ( 'NONE', *, *, #310, .F. ) ;
#337 =( LENGTH_UNIT ( ) NAMED_UNIT ( * ) SI_UNIT ( .MILLI., .METRE. ) );
#338 = DIRECTION ( 'NONE',  ( -0.0000000000000000000, -1.000000000000000000, -0.0000000000000000000 ) ) ;
#339 = AXIS2_PLACEMENT_3D ( 'NONE', #9, #247, #72 ) ;
#340 = ORIENTED_EDGE ( 'NONE', *, *, #345, .T. ) ;
#341 = VERTEX_POINT ( 'NONE', #87 ) ;
#342 = CONICAL_SURFACE ( 'NONE', #180, 0.5000000000000022204, 0.7853981633974466137 ) ;
#343 = ORIENTED_EDGE ( 'NONE', *, *, #360, .F. ) ;
#344 = EDGE_CURVE ( 'NONE', #80, #65, #132, .T. ) ;
#345 = EDGE_CURVE ( 'NONE', #254, #108, #1, .T. ) ;
#346 = CARTESIAN_POINT ( 'NONE',  ( 0.0000000000000000000, 0.0000000000000000000, 0.0000000000000000000 ) ) ;
#347 = CARTESIAN_POINT ( 'NONE',  ( 0.0000000000000000000, 0.0000000000000000000, 0.5000000000000022204 ) ) ;
#348 = FACE_BOUND ( 'NONE', #189, .T. ) ;
#349 = ORIENTED_EDGE ( 'NONE', *, *, #101, .T. ) ;
#350 = AXIS2_PLACEMENT_3D ( 'NONE', #361, #82, #334 ) ;
#351 = DIRECTION ( 'NONE',  ( 0.0000000000000000000, 0.0000000000000000000, -1.000000000000000000 ) ) ;
#352 = FACE_OUTER_BOUND ( 'NONE', #200, .T. ) ;
#353 = DIRECTION ( 'NONE',  ( 0.0000000000000000000, 0.0000000000000000000, -1.000000000000000000 ) ) ;
#354 = CARTESIAN_POINT ( 'NONE',  ( 3.306546357697853733E-16, 0.0000000000000000000, 2.700000000000000178 ) ) ;
#355 = CARTESIAN_POINT ( 'NONE',  ( 0.0000000000000000000, 13.00000000000000178, -2.700000000000000178 ) ) ;
#356 = DIRECTION ( 'NONE',  ( -0.0000000000000000000, -1.000000000000000000, -0.0000000000000000000 ) ) ;
#357 = FACE_OUTER_BOUND ( 'NONE', #223, .T. ) ;
#358 = FACE_OUTER_BOUND ( 'NONE', #212, .T. ) ;
#359 = CARTESIAN_POINT ( 'NONE',  ( 0.0000000000000000000, 0.4999999999999995559, 0.0000000000000000000 ) ) ;
#360 = EDGE_CURVE ( 'NONE', #269, #372, #46, .T. ) ;
#361 = CARTESIAN_POINT ( 'NONE',  ( 0.0000000000000000000, 13.99999999999999822, 0.0000000000000000000 ) ) ;
#362 = VERTEX_POINT ( 'NONE', #229 ) ;
#363 = ORIENTED_EDGE ( 'NONE', *, *, #101, .F. ) ;
#364 = DIRECTION ( 'NONE',  ( -0.0000000000000000000, -1.000000000000000000, -0.0000000000000000000 ) ) ;
#365 = CARTESIAN_POINT ( 'NONE',  ( 0.0000000000000000000, 0.4999999999999995559, 0.0000000000000000000 ) ) ;
#366 = EDGE_CURVE ( 'NONE', #65, #269, #73, .T. ) ;
#367 = LINE ( 'NONE', #163, #174 ) ;
#368 = CARTESIAN_POINT ( 'NONE',  ( 0.0000000000000000000, 0.0000000000000000000, 0.0000000000000000000 ) ) ;
#369 = EDGE_CURVE ( 'NONE', #65, #80, #38, .T. ) ;
#370 = PRODUCT_RELATED_PRODUCT_CATEGORY ( 'part', '', ( #45 ) ) ;
#371 = FACE_OUTER_BOUND ( 'NONE', #89, .T. ) ;
#372 = VERTEX_POINT ( 'NONE', #141 ) ;
ENDSEC;
END-ISO-10303-21;
