ISO-10303-21;
HEADER;
FILE_DESCRIPTION (( 'STEP AP214' ),
    '1' );
FILE_NAME ('INGUN_55577.STEP',
    '2025-01-29T12:30:23',
    ( '' ),
    ( '' ),
    'SwSTEP 2.0',
    'SolidWorks 2023',
    '' );
FILE_SCHEMA (( 'AUTOMOTIVE_DESIGN' ));
ENDSEC;

DATA;
#1 = SURFACE_STYLE_FILL_AREA ( #241 ) ;
#2 = AXIS2_PLACEMENT_3D ( 'NONE', #11, #69, #72 ) ;
#3 = SURFACE_STYLE_FILL_AREA ( #101 ) ;
#4 = ADVANCED_FACE ( 'NONE', ( #114, #188 ), #68, .F. ) ;
#5 = CARTESIAN_POINT ( 'NONE',  ( -2.710000000000013731, 41.99999999999999289, 3.318792825689337346E-16 ) ) ;
#6 = PRESENTATION_LAYER_ASSIGNMENT (  '', '', ( #222 ) ) ;
#7 = FILL_AREA_STYLE ('',( #201 ) ) ;
#8 = DIRECTION ( 'NONE',  ( -1.251269555650556479E-16, 1.000000000000000000, -0.000000000000000000 ) ) ;
#9 = CARTESIAN_POINT ( 'NONE',  ( 1.174256625673464953E-32, -9.384521667379246931E-17, 0.000000000000000000 ) ) ;
#10 = CONICAL_SURFACE ( 'NONE', #177, 2.710000000000008402, 0.5954651515828174313 ) ;
#11 = CARTESIAN_POINT ( 'NONE',  ( -3.753808666951599672E-17, 0.2999999999999947153, 0.000000000000000000 ) ) ;
#12 = ORIENTED_EDGE ( 'NONE', *, *, #49, .F. ) ;
#13 = VERTEX_POINT ( 'NONE', #45 ) ;
#14 = AXIS2_PLACEMENT_3D ( 'NONE', #238, #23, #122 ) ;
#15 = APPLICATION_PROTOCOL_DEFINITION ( 'draft international standard', 'automotive_design', 1998, #79 ) ;
#16 = EDGE_LOOP ( 'NONE', ( #161, #190, #38, #229 ) ) ;
#17 = FACE_OUTER_BOUND ( 'NONE', #132, .T. ) ;
#18 = ORIENTED_EDGE ( 'NONE', *, *, #129, .F. ) ;
#19 = ORIENTED_EDGE ( 'NONE', *, *, #52, .F. ) ;
#20 =( GEOMETRIC_REPRESENTATION_CONTEXT ( 3 ) GLOBAL_UNCERTAINTY_ASSIGNED_CONTEXT ( ( #90 ) ) GLOBAL_UNIT_ASSIGNED_CONTEXT ( ( #217, #144, #237 ) ) REPRESENTATION_CONTEXT ( 'NONE', 'WORKASPACE' ) );
#21 = DIRECTION ( 'NONE',  ( -1.251269555650556479E-16, 1.000000000000000000, -0.000000000000000000 ) ) ;
#22 = MANIFOLD_SOLID_BREP ( 'Fase1', #159 ) ;
#23 = DIRECTION ( 'NONE',  ( -1.251269555650556479E-16, 1.000000000000000000, -0.000000000000000000 ) ) ;
#24 = DIRECTION ( 'NONE',  ( -1.251269555650556479E-16, 1.000000000000000000, -0.000000000000000000 ) ) ;
#25 = AXIS2_PLACEMENT_3D ( 'NONE', #246, #88, #205 ) ;
#26 = FILL_AREA_STYLE_COLOUR ( '', #145 ) ;
#27 = CARTESIAN_POINT ( 'NONE',  ( -2.502539111301112859E-15, 20.00000000000000000, 0.000000000000000000 ) ) ;
#28 = DIRECTION ( 'NONE',  ( -1.251269555650556479E-16, 1.000000000000000000, -0.000000000000000000 ) ) ;
#29 = AXIS2_PLACEMENT_3D ( 'NONE', #245, #28, #223 ) ;
#30 = AXIS2_PLACEMENT_3D ( 'NONE', #299, #185, #302 ) ;
#31 = CARTESIAN_POINT ( 'NONE',  ( -5.255332133732336570E-15, 41.99999999999999289, 0.000000000000000000 ) ) ;
#32 = FACE_OUTER_BOUND ( 'NONE', #261, .T. ) ;
#33 = SURFACE_STYLE_FILL_AREA ( #7 ) ;
#34 = AXIS2_PLACEMENT_3D ( 'NONE', #165, #189, #160 ) ;
#35 = ADVANCED_FACE ( 'NONE', ( #123 ), #48, .T. ) ;
#36 = ORIENTED_EDGE ( 'NONE', *, *, #243, .T. ) ;
#37 = CARTESIAN_POINT ( 'NONE',  ( -1.500000000000010214, 0.2999999999999945488, 0.000000000000000000 ) ) ;
#38 = ORIENTED_EDGE ( 'NONE', *, *, #55, .T. ) ;
#39 = CARTESIAN_POINT ( 'NONE',  ( -2.502539111301112859E-15, 20.00000000000000000, 0.000000000000000000 ) ) ;
#40 = VERTEX_POINT ( 'NONE', #148 ) ;
#41 = AXIS2_PLACEMENT_3D ( 'NONE', #270, #57, #157 ) ;
#42 = EDGE_LOOP ( 'NONE', ( #98, #191, #12, #259 ) ) ;
#43 = CARTESIAN_POINT ( 'NONE',  ( -2.710000000000007958, 20.00000000000000000, 0.000000000000000000 ) ) ;
#44 = EDGE_LOOP ( 'NONE', ( #228, #113, #300, #70 ) ) ;
#45 = CARTESIAN_POINT ( 'NONE',  ( -2.710000000000014175, 41.99999999999999289, 3.318792825689337839E-16 ) ) ;
#46 = PRODUCT_DEFINITION_CONTEXT ( 'detailed design', #83, 'design' ) ;
#47 = CIRCLE ( 'NONE', #99, 2.710000000000008402 ) ;
#48 = CYLINDRICAL_SURFACE ( 'NONE', #103, 1.500000000000010214 ) ;
#49 = EDGE_CURVE ( 'NONE', #40, #186, #258, .T. ) ;
#50 = CARTESIAN_POINT ( 'NONE',  ( -1.200000000000012834, -2.439975633518608812E-16, 0.000000000000000000 ) ) ;
#51 = LINE ( 'NONE', #194, #87 ) ;
#52 = EDGE_CURVE ( 'NONE', #64, #308, #266, .T. ) ;
#53 = AXIS2_PLACEMENT_3D ( 'NONE', #212, #260, #233 ) ;
#54 = CARTESIAN_POINT ( 'NONE',  ( -3.753808666951599672E-17, 0.2999999999999947153, 0.000000000000000000 ) ) ;
#55 = EDGE_CURVE ( 'NONE', #251, #13, #220, .T. ) ;
#56 = DIRECTION ( 'NONE',  ( -1.000000000000000000, 0.000000000000000000, 0.000000000000000000 ) ) ;
#57 = DIRECTION ( 'NONE',  ( -1.251269555650556479E-16, 1.000000000000000000, -0.000000000000000000 ) ) ;
#58 = CONICAL_SURFACE ( 'NONE', #25, 2.710000000000008402, 0.5954651515828174313 ) ;
#59 = PRODUCT_DEFINITION_FORMATION_WITH_SPECIFIED_SOURCE ( 'ANY', '', #149, .NOT_KNOWN. ) ;
#60 = EDGE_CURVE ( 'NONE', #213, #163, #51, .T. ) ;
#61 = DIRECTION ( 'NONE',  ( -1.000000000000000000, 0.000000000000000000, 0.000000000000000000 ) ) ;
#62 = CARTESIAN_POINT ( 'NONE',  ( -5.755839955992559852E-15, 46.00000000000000000, 0.000000000000000000 ) ) ;
#63 = DIRECTION ( 'NONE',  ( 1.000000000000000000, 0.000000000000000000, 0.000000000000000000 ) ) ;
#64 = VERTEX_POINT ( 'NONE', #50 ) ;
#65 = CARTESIAN_POINT ( 'NONE',  ( 1.174256625673463995E-32, -9.384521667379246931E-17, 0.000000000000000000 ) ) ;
#66 = EDGE_LOOP ( 'NONE', ( #167, #93, #18, #100 ) ) ;
#67 = DIRECTION ( 'NONE',  ( -1.000000000000000000, 0.000000000000000000, 0.000000000000000000 ) ) ;
#68 = PLANE ( 'NONE',  #198 ) ;
#69 = DIRECTION ( 'NONE',  ( -1.251269555650555246E-16, 1.000000000000000000, -0.000000000000000000 ) ) ;
#70 = ORIENTED_EDGE ( 'NONE', *, *, #243, .F. ) ;
#71 = CIRCLE ( 'NONE', #34, 1.500000000000010214 ) ;
#72 = DIRECTION ( 'NONE',  ( -1.000000000000000000, -1.084202172485497038E-16, 0.000000000000000000 ) ) ;
#73 = ORIENTED_EDGE ( 'NONE', *, *, #84, .F. ) ;
#74 = CARTESIAN_POINT ( 'NONE',  ( -2.502539111301112859E-15, 20.00000000000000000, 0.000000000000000000 ) ) ;
#75 = SURFACE_STYLE_USAGE ( .BOTH. , #152 ) ;
#76 = CIRCLE ( 'NONE', #281, 1.200000000000012834 ) ;
#77 = DIRECTION ( 'NONE',  ( 0.5608939084323801838, -0.8278876877230683107, 0.000000000000000000 ) ) ;
#78 = CARTESIAN_POINT ( 'NONE',  ( -2.710000000000012843, 46.00000000000000000, 0.000000000000000000 ) ) ;
#79 = APPLICATION_CONTEXT ( 'automotive_design' ) ;
#80 = AXIS2_PLACEMENT_3D ( 'NONE', #219, #176, #267 ) ;
#81 = VECTOR ( 'NONE', #182, 1000.000000000000114 ) ;
#82 = CARTESIAN_POINT ( 'NONE',  ( 1.200000000000012834, 5.630713000427591792E-17, 1.653273178848941165E-16 ) ) ;
#83 = APPLICATION_CONTEXT ( 'automotive_design' ) ;
#84 = EDGE_CURVE ( 'NONE', #214, #251, #287, .T. ) ;
#85 = EDGE_CURVE ( 'NONE', #64, #95, #131, .T. ) ;
#86 = CARTESIAN_POINT ( 'NONE',  ( -5.755839955992559852E-15, 46.00000000000000000, 0.000000000000000000 ) ) ;
#87 = VECTOR ( 'NONE', #77, 1000.000000000000000 ) ;
#88 = DIRECTION ( 'NONE',  ( 1.251269555650556479E-16, -1.000000000000000000, 0.000000000000000000 ) ) ;
#89 = EDGE_CURVE ( 'NONE', #214, #163, #150, .T. ) ;
#90 = UNCERTAINTY_MEASURE_WITH_UNIT (LENGTH_MEASURE( 1.000000000000000082E-05 ), #217, 'distance_accuracy_value', 'NONE');
#91 = DIRECTION ( 'NONE',  ( 0.7071067811865502373, 0.7071067811865447972, 8.659560562354967371E-17 ) ) ;
#92 =( LENGTH_UNIT ( ) NAMED_UNIT ( * ) SI_UNIT ( .MILLI., .METRE. ) );
#93 = ORIENTED_EDGE ( 'NONE', *, *, #89, .T. ) ;
#94 = STYLED_ITEM ( 'NONE', ( #197 ), #136 ) ;
#95 = VERTEX_POINT ( 'NONE', #82 ) ;
#96 = DIRECTION ( 'NONE',  ( -1.000000000000000000, -1.251269555650556479E-16, 0.000000000000000000 ) ) ;
#97 = DIRECTION ( 'NONE',  ( 1.251269555650556479E-16, -1.000000000000000000, 0.000000000000000000 ) ) ;
#98 = ORIENTED_EDGE ( 'NONE', *, *, #291, .T. ) ;
#99 = AXIS2_PLACEMENT_3D ( 'NONE', #178, #268, #272 ) ;
#100 = ORIENTED_EDGE ( 'NONE', *, *, #55, .F. ) ;
#101 = FILL_AREA_STYLE ('',( #26 ) ) ;
#102 = DIRECTION ( 'NONE',  ( -0.7071067811865504593, 0.7071067811865445751, 0.000000000000000000 ) ) ;
#103 = AXIS2_PLACEMENT_3D ( 'NONE', #124, #21, #175 ) ;
#104 = SURFACE_SIDE_STYLE ('',( #1 ) ) ;
#105 = LINE ( 'NONE', #134, #209 ) ;
#106 = AXIS2_PLACEMENT_3D ( 'NONE', #86, #248, #61 ) ;
#107 = ADVANCED_FACE ( 'NONE', ( #128 ), #127, .T. ) ;
#108 = FACE_OUTER_BOUND ( 'NONE', #42, .T. ) ;
#109 = DIRECTION ( 'NONE',  ( -1.000000000000000000, 0.000000000000000000, 0.000000000000000000 ) ) ;
#110 = CYLINDRICAL_SURFACE ( 'NONE', #41, 1.500000000000010214 ) ;
#111 = MECHANICAL_DESIGN_GEOMETRIC_PRESENTATION_REPRESENTATION (  '', ( #94 ), #216 ) ;
#112 = CARTESIAN_POINT ( 'NONE',  ( -5.255332133732336570E-15, 41.99999999999999289, 0.000000000000000000 ) ) ;
#113 = ORIENTED_EDGE ( 'NONE', *, *, #85, .F. ) ;
#114 = FACE_OUTER_BOUND ( 'NONE', #280, .T. ) ;
#115 = AXIS2_PLACEMENT_3D ( 'NONE', #39, #169, #67 ) ;
#116 = VERTEX_POINT ( 'NONE', #224 ) ;
#117 = DIRECTION ( 'NONE',  ( -1.251269555650556479E-16, 1.000000000000000000, -0.000000000000000000 ) ) ;
#118 = ORIENTED_EDGE ( 'NONE', *, *, #247, .F. ) ;
#119 = ORIENTED_EDGE ( 'NONE', *, *, #120, .F. ) ;
#120 = EDGE_CURVE ( 'NONE', #251, #214, #264, .T. ) ;
#121 = CIRCLE ( 'NONE', #115, 1.500000000000008660 ) ;
#122 = DIRECTION ( 'NONE',  ( -1.000000000000000000, 0.000000000000000000, 0.000000000000000000 ) ) ;
#123 = FACE_OUTER_BOUND ( 'NONE', #166, .T. ) ;
#124 = CARTESIAN_POINT ( 'NONE',  ( -5.755839955992559852E-15, 46.00000000000000000, 0.000000000000000000 ) ) ;
#125 = SURFACE_SIDE_STYLE ('',( #33 ) ) ;
#126 = PRESENTATION_LAYER_ASSIGNMENT (  '', '', ( #296 ) ) ;
#127 = CYLINDRICAL_SURFACE ( 'NONE', #106, 2.710000000000007070 ) ;
#128 = FACE_OUTER_BOUND ( 'NONE', #66, .T. ) ;
#129 = EDGE_CURVE ( 'NONE', #13, #163, #174, .T. ) ;
#130 = DIRECTION ( 'NONE',  ( -1.251269555650556479E-16, 1.000000000000000000, 0.000000000000000000 ) ) ;
#131 = CIRCLE ( 'NONE', #80, 1.200000000000012834 ) ;
#132 = EDGE_LOOP ( 'NONE', ( #277, #303, #304 ) ) ;
#133 = UNCERTAINTY_MEASURE_WITH_UNIT (LENGTH_MEASURE( 1.000000000000000082E-05 ), #200, 'distance_accuracy_value', 'NONE');
#134 = CARTESIAN_POINT ( 'NONE',  ( -1.500000000000015987, 46.00000000000000000, 0.000000000000000000 ) ) ;
#135 = EDGE_LOOP ( 'NONE', ( #118, #236, #139, #19 ) ) ;
#136 = ADVANCED_FACE ( 'NONE', ( #108 ), #110, .T. ) ;
#137 = EDGE_CURVE ( 'NONE', #213, #13, #202, .T. ) ;
#138 =( NAMED_UNIT ( * ) PLANE_ANGLE_UNIT ( ) SI_UNIT ( $, .RADIAN. ) );
#139 = ORIENTED_EDGE ( 'NONE', *, *, #291, .F. ) ;
#140 = CARTESIAN_POINT ( 'NONE',  ( 1.500000000000010214, 0.2999999999999948819, 1.836970198721042260E-16 ) ) ;
#141 = ORIENTED_EDGE ( 'NONE', *, *, #292, .F. ) ;
#142 =( NAMED_UNIT ( * ) SI_UNIT ( $, .STERADIAN. ) SOLID_ANGLE_UNIT ( ) );
#143 = ORIENTED_EDGE ( 'NONE', *, *, #49, .T. ) ;
#144 =( NAMED_UNIT ( * ) PLANE_ANGLE_UNIT ( ) SI_UNIT ( $, .RADIAN. ) );
#145 = COLOUR_RGB ( '',0.7529411764705882248, 0.7529411764705882248, 0.7529411764705882248 ) ;
#146 =( GEOMETRIC_REPRESENTATION_CONTEXT ( 3 ) GLOBAL_UNCERTAINTY_ASSIGNED_CONTEXT ( ( #252 ) ) GLOBAL_UNIT_ASSIGNED_CONTEXT ( ( #284, #239, #173 ) ) REPRESENTATION_CONTEXT ( 'NONE', 'WORKASPACE' ) );
#147 = UNCERTAINTY_MEASURE_WITH_UNIT (LENGTH_MEASURE( 1.000000000000000082E-05 ), #92, 'distance_accuracy_value', 'NONE');
#148 = CARTESIAN_POINT ( 'NONE',  ( -1.500000000000011324, 20.00000000000000000, 0.000000000000000000 ) ) ;
#149 = PRODUCT ( 'INGUN_55577', 'INGUN_55577', '', ( #276 ) ) ;
#150 = LINE ( 'NONE', #154, #290 ) ;
#151 = MECHANICAL_DESIGN_GEOMETRIC_PRESENTATION_REPRESENTATION (  '', ( #296 ), #146 ) ;
#152 = SURFACE_SIDE_STYLE ('',( #3 ) ) ;
#153 = ADVANCED_FACE ( 'NONE', ( #269 ), #225, .T. ) ;
#154 = CARTESIAN_POINT ( 'NONE',  ( 2.710000000000001297, 46.00000000000000000, 3.318792825689335866E-16 ) ) ;
#155 = COLOUR_RGB ( '',0.7529411764705882248, 0.7529411764705882248, 0.7529411764705882248 ) ;
#156 = AXIS2_PLACEMENT_3D ( 'NONE', #27, #180, #56 ) ;
#157 = DIRECTION ( 'NONE',  ( -1.000000000000000000, 0.000000000000000000, 0.000000000000000000 ) ) ;
#158 = CARTESIAN_POINT ( 'NONE',  ( 2.710000000000002629, 20.00000000000000000, 3.318792825689336853E-16 ) ) ;
#159 = CLOSED_SHELL ( 'NONE', ( #283, #136, #107, #203, #285, #153, #4, #35, #210, #230 ) ) ;
#160 = DIRECTION ( 'NONE',  ( -1.000000000000000000, -1.084202172485497038E-16, 0.000000000000000000 ) ) ;
#161 = ORIENTED_EDGE ( 'NONE', *, *, #89, .F. ) ;
#162 = CARTESIAN_POINT ( 'NONE',  ( 1.500000000000004441, 46.00000000000000000, 1.836970198721042260E-16 ) ) ;
#163 = VERTEX_POINT ( 'NONE', #289 ) ;
#164 = PRODUCT_RELATED_PRODUCT_CATEGORY ( 'part', '', ( #149 ) ) ;
#165 = CARTESIAN_POINT ( 'NONE',  ( -3.753808666951599672E-17, 0.2999999999999947153, 0.000000000000000000 ) ) ;
#166 = EDGE_LOOP ( 'NONE', ( #141, #36, #234, #232 ) ) ;
#167 = ORIENTED_EDGE ( 'NONE', *, *, #120, .T. ) ;
#168 = AXIS2_PLACEMENT_3D ( 'NONE', #74, #288, #218 ) ;
#169 = DIRECTION ( 'NONE',  ( -1.251269555650556479E-16, 1.000000000000000000, -0.000000000000000000 ) ) ;
#170 = ORIENTED_EDGE ( 'NONE', *, *, #257, .T. ) ;
#171 = PRODUCT_DEFINITION ( 'UNKNOWN', '', #59, #46 ) ;
#172 = PRESENTATION_STYLE_ASSIGNMENT (( #75 ) ) ;
#173 =( NAMED_UNIT ( * ) SI_UNIT ( $, .STERADIAN. ) SOLID_ANGLE_UNIT ( ) );
#174 = CIRCLE ( 'NONE', #181, 2.710000000000008402 ) ;
#175 = DIRECTION ( 'NONE',  ( -1.000000000000000000, 0.000000000000000000, 0.000000000000000000 ) ) ;
#176 = DIRECTION ( 'NONE',  ( 1.251269555650556479E-16, -1.000000000000000000, 0.000000000000000000 ) ) ;
#177 = AXIS2_PLACEMENT_3D ( 'NONE', #112, #97, #63 ) ;
#178 = CARTESIAN_POINT ( 'NONE',  ( -5.255332133732336570E-15, 41.99999999999999289, 0.000000000000000000 ) ) ;
#179 = PRODUCT_DEFINITION_SHAPE ( 'NONE', 'NONE',  #171 ) ;
#180 = DIRECTION ( 'NONE',  ( -1.251269555650556479E-16, 1.000000000000000000, -0.000000000000000000 ) ) ;
#181 = AXIS2_PLACEMENT_3D ( 'NONE', #31, #8, #109 ) ;
#182 = DIRECTION ( 'NONE',  ( -0.5608939084323798507, -0.8278876877230684217, 6.868969296229627370E-17 ) ) ;
#183 = PLANE ( 'NONE',  #215 ) ;
#184 = MECHANICAL_DESIGN_GEOMETRIC_PRESENTATION_REPRESENTATION (  '', ( #222 ), #20 ) ;
#185 = DIRECTION ( 'NONE',  ( 0.000000000000000000, 0.000000000000000000, 1.000000000000000000 ) ) ;
#186 = VERTEX_POINT ( 'NONE', #295 ) ;
#187 = ADVANCED_BREP_SHAPE_REPRESENTATION ( 'INGUN_55577', ( #22, #30 ), #265 ) ;
#188 = FACE_BOUND ( 'NONE', #305, .T. ) ;
#189 = DIRECTION ( 'NONE',  ( -1.251269555650555246E-16, 1.000000000000000000, -0.000000000000000000 ) ) ;
#190 = ORIENTED_EDGE ( 'NONE', *, *, #84, .T. ) ;
#191 = ORIENTED_EDGE ( 'NONE', *, *, #292, .T. ) ;
#192 = VECTOR ( 'NONE', #102, 1000.000000000000000 ) ;
#193 = ORIENTED_EDGE ( 'NONE', *, *, #137, .T. ) ;
#194 = CARTESIAN_POINT ( 'NONE',  ( 2.710000000000003073, 41.99999999999999289, 0.000000000000000000 ) ) ;
#195 = EDGE_CURVE ( 'NONE', #163, #13, #47, .T. ) ;
#196 = SURFACE_STYLE_USAGE ( .BOTH. , #104 ) ;
#197 = PRESENTATION_STYLE_ASSIGNMENT (( #221 ) ) ;
#198 = AXIS2_PLACEMENT_3D ( 'NONE', #279, #211, #96 ) ;
#199 = VECTOR ( 'NONE', #250, 1000.000000000000000 ) ;
#200 =( LENGTH_UNIT ( ) NAMED_UNIT ( * ) SI_UNIT ( .MILLI., .METRE. ) );
#201 = FILL_AREA_STYLE_COLOUR ( '', #275 ) ;
#202 = LINE ( 'NONE', #5, #81 ) ;
#203 = ADVANCED_FACE ( 'NONE', ( #297 ), #58, .T. ) ;
#204 = CONICAL_SURFACE ( 'NONE', #53, 1.500000000000010214, 0.7853981633974522758 ) ;
#205 = DIRECTION ( 'NONE',  ( 1.000000000000000000, 0.000000000000000000, 0.000000000000000000 ) ) ;
#206 = ORIENTED_EDGE ( 'NONE', *, *, #247, .T. ) ;
#207 = APPLICATION_PROTOCOL_DEFINITION ( 'draft international standard', 'automotive_design', 1998, #83 ) ;
#208 = ORIENTED_EDGE ( 'NONE', *, *, #85, .T. ) ;
#209 = VECTOR ( 'NONE', #117, 1000.000000000000000 ) ;
#210 = ADVANCED_FACE ( 'NONE', ( #32 ), #183, .F. ) ;
#211 = DIRECTION ( 'NONE',  ( -1.251269555650556479E-16, 1.000000000000000000, 0.000000000000000000 ) ) ;
#212 = CARTESIAN_POINT ( 'NONE',  ( -3.753808666951599672E-17, 0.2999999999999947153, 0.000000000000000000 ) ) ;
#213 = VERTEX_POINT ( 'NONE', #62 ) ;
#214 = VERTEX_POINT ( 'NONE', #158 ) ;
#215 = AXIS2_PLACEMENT_3D ( 'NONE', #9, #130, #273 ) ;
#216 =( GEOMETRIC_REPRESENTATION_CONTEXT ( 3 ) GLOBAL_UNCERTAINTY_ASSIGNED_CONTEXT ( ( #133 ) ) GLOBAL_UNIT_ASSIGNED_CONTEXT ( ( #200, #294, #293 ) ) REPRESENTATION_CONTEXT ( 'NONE', 'WORKASPACE' ) );
#217 =( LENGTH_UNIT ( ) NAMED_UNIT ( * ) SI_UNIT ( .MILLI., .METRE. ) );
#218 = DIRECTION ( 'NONE',  ( -1.000000000000000000, 0.000000000000000000, 0.000000000000000000 ) ) ;
#219 = CARTESIAN_POINT ( 'NONE',  ( 1.174256625673463995E-32, -9.384521667379246931E-17, 0.000000000000000000 ) ) ;
#220 = LINE ( 'NONE', #78, #301 ) ;
#221 = SURFACE_STYLE_USAGE ( .BOTH. , #125 ) ;
#222 = STYLED_ITEM ( 'NONE', ( #172 ), #22 ) ;
#223 = DIRECTION ( 'NONE',  ( -1.000000000000000000, 0.000000000000000000, 0.000000000000000000 ) ) ;
#224 = CARTESIAN_POINT ( 'NONE',  ( 1.500000000000010214, 0.2999999999999948819, 1.836970198721043986E-16 ) ) ;
#225 = CYLINDRICAL_SURFACE ( 'NONE', #29, 2.710000000000007070 ) ;
#226 = FACE_OUTER_BOUND ( 'NONE', #44, .T. ) ;
#227 = LINE ( 'NONE', #140, #271 ) ;
#228 = ORIENTED_EDGE ( 'NONE', *, *, #262, .F. ) ;
#229 = ORIENTED_EDGE ( 'NONE', *, *, #195, .F. ) ;
#230 = ADVANCED_FACE ( 'NONE', ( #226 ), #307, .T. ) ;
#231 = DIRECTION ( 'NONE',  ( -1.000000000000000000, -1.251269555650556725E-16, 0.000000000000000000 ) ) ;
#232 = ORIENTED_EDGE ( 'NONE', *, *, #257, .F. ) ;
#233 = DIRECTION ( 'NONE',  ( -1.000000000000000000, -1.084202172485497038E-16, 0.000000000000000000 ) ) ;
#234 = ORIENTED_EDGE ( 'NONE', *, *, #306, .T. ) ;
#235 = FACE_OUTER_BOUND ( 'NONE', #135, .T. ) ;
#236 = ORIENTED_EDGE ( 'NONE', *, *, #262, .T. ) ;
#237 =( NAMED_UNIT ( * ) SI_UNIT ( $, .STERADIAN. ) SOLID_ANGLE_UNIT ( ) );
#238 = CARTESIAN_POINT ( 'NONE',  ( -2.502539111301112859E-15, 20.00000000000000000, 0.000000000000000000 ) ) ;
#239 =( NAMED_UNIT ( * ) PLANE_ANGLE_UNIT ( ) SI_UNIT ( $, .RADIAN. ) );
#240 = PRESENTATION_LAYER_ASSIGNMENT (  '', '', ( #94 ) ) ;
#241 = FILL_AREA_STYLE ('',( #309 ) ) ;
#242 = DIRECTION ( 'NONE',  ( -1.251269555650556479E-16, 1.000000000000000000, -0.000000000000000000 ) ) ;
#243 = EDGE_CURVE ( 'NONE', #116, #308, #244, .T. ) ;
#244 = CIRCLE ( 'NONE', #2, 1.500000000000010214 ) ;
#245 = CARTESIAN_POINT ( 'NONE',  ( -5.755839955992559852E-15, 46.00000000000000000, 0.000000000000000000 ) ) ;
#246 = CARTESIAN_POINT ( 'NONE',  ( -5.255332133732336570E-15, 41.99999999999999289, 0.000000000000000000 ) ) ;
#247 = EDGE_CURVE ( 'NONE', #95, #64, #76, .T. ) ;
#248 = DIRECTION ( 'NONE',  ( -1.251269555650556479E-16, 1.000000000000000000, -0.000000000000000000 ) ) ;
#249 = AXIS2_PLACEMENT_3D ( 'NONE', #54, #253, #278 ) ;
#250 = DIRECTION ( 'NONE',  ( -1.251269555650556479E-16, 1.000000000000000000, -0.000000000000000000 ) ) ;
#251 = VERTEX_POINT ( 'NONE', #43 ) ;
#252 = UNCERTAINTY_MEASURE_WITH_UNIT (LENGTH_MEASURE( 1.000000000000000082E-05 ), #284, 'distance_accuracy_value', 'NONE');
#253 = DIRECTION ( 'NONE',  ( -1.251269555650555246E-16, 1.000000000000000000, -0.000000000000000000 ) ) ;
#254 = EDGE_LOOP ( 'NONE', ( #282, #193, #256 ) ) ;
#255 = LINE ( 'NONE', #162, #199 ) ;
#256 = ORIENTED_EDGE ( 'NONE', *, *, #129, .T. ) ;
#257 = EDGE_CURVE ( 'NONE', #186, #40, #121, .T. ) ;
#258 = CIRCLE ( 'NONE', #168, 1.500000000000008660 ) ;
#259 = ORIENTED_EDGE ( 'NONE', *, *, #306, .F. ) ;
#260 = DIRECTION ( 'NONE',  ( -1.251269555650555246E-16, 1.000000000000000000, -0.000000000000000000 ) ) ;
#261 = EDGE_LOOP ( 'NONE', ( #208, #206 ) ) ;
#262 = EDGE_CURVE ( 'NONE', #95, #116, #227, .T. ) ;
#263 = PRESENTATION_STYLE_ASSIGNMENT (( #196 ) ) ;
#264 = CIRCLE ( 'NONE', #156, 2.710000000000005294 ) ;
#265 =( GEOMETRIC_REPRESENTATION_CONTEXT ( 3 ) GLOBAL_UNCERTAINTY_ASSIGNED_CONTEXT ( ( #147 ) ) GLOBAL_UNIT_ASSIGNED_CONTEXT ( ( #92, #138, #142 ) ) REPRESENTATION_CONTEXT ( 'NONE', 'WORKASPACE' ) );
#266 = LINE ( 'NONE', #286, #192 ) ;
#267 = DIRECTION ( 'NONE',  ( -1.000000000000000000, -1.251269555650556725E-16, 0.000000000000000000 ) ) ;
#268 = DIRECTION ( 'NONE',  ( -1.251269555650556479E-16, 1.000000000000000000, -0.000000000000000000 ) ) ;
#269 = FACE_OUTER_BOUND ( 'NONE', #16, .T. ) ;
#270 = CARTESIAN_POINT ( 'NONE',  ( -5.755839955992559852E-15, 46.00000000000000000, 0.000000000000000000 ) ) ;
#271 = VECTOR ( 'NONE', #91, 1000.000000000000000 ) ;
#272 = DIRECTION ( 'NONE',  ( -1.000000000000000000, 0.000000000000000000, 0.000000000000000000 ) ) ;
#273 = DIRECTION ( 'NONE',  ( -1.000000000000000000, -1.251269555650556479E-16, 0.000000000000000000 ) ) ;
#274 = SHAPE_DEFINITION_REPRESENTATION ( #179, #187 ) ;
#275 = COLOUR_RGB ( '',0.7529411764705882248, 0.7529411764705882248, 0.7529411764705882248 ) ;
#276 = PRODUCT_CONTEXT ( 'NONE', #79, 'mechanical' ) ;
#277 = ORIENTED_EDGE ( 'NONE', *, *, #137, .F. ) ;
#278 = DIRECTION ( 'NONE',  ( -1.000000000000000000, -1.084202172485497038E-16, 0.000000000000000000 ) ) ;
#279 = CARTESIAN_POINT ( 'NONE',  ( 1.500000000000005995, 20.00000000000000000, 0.000000000000000000 ) ) ;
#280 = EDGE_LOOP ( 'NONE', ( #119, #73 ) ) ;
#281 = AXIS2_PLACEMENT_3D ( 'NONE', #65, #298, #231 ) ;
#282 = ORIENTED_EDGE ( 'NONE', *, *, #60, .F. ) ;
#283 = ADVANCED_FACE ( 'NONE', ( #235 ), #204, .T. ) ;
#284 =( LENGTH_UNIT ( ) NAMED_UNIT ( * ) SI_UNIT ( .MILLI., .METRE. ) );
#285 = ADVANCED_FACE ( 'NONE', ( #17 ), #10, .T. ) ;
#286 = CARTESIAN_POINT ( 'NONE',  ( -1.500000000000010214, 0.2999999999999945488, 0.000000000000000000 ) ) ;
#287 = CIRCLE ( 'NONE', #14, 2.710000000000005294 ) ;
#288 = DIRECTION ( 'NONE',  ( -1.251269555650556479E-16, 1.000000000000000000, -0.000000000000000000 ) ) ;
#289 = CARTESIAN_POINT ( 'NONE',  ( 2.710000000000002629, 41.99999999999999289, 0.000000000000000000 ) ) ;
#290 = VECTOR ( 'NONE', #242, 1000.000000000000000 ) ;
#291 = EDGE_CURVE ( 'NONE', #308, #116, #71, .T. ) ;
#292 = EDGE_CURVE ( 'NONE', #116, #186, #255, .T. ) ;
#293 =( NAMED_UNIT ( * ) SI_UNIT ( $, .STERADIAN. ) SOLID_ANGLE_UNIT ( ) );
#294 =( NAMED_UNIT ( * ) PLANE_ANGLE_UNIT ( ) SI_UNIT ( $, .RADIAN. ) );
#295 = CARTESIAN_POINT ( 'NONE',  ( 1.500000000000005995, 20.00000000000000000, 1.836970198721041274E-16 ) ) ;
#296 = STYLED_ITEM ( 'NONE', ( #263 ), #35 ) ;
#297 = FACE_OUTER_BOUND ( 'NONE', #254, .T. ) ;
#298 = DIRECTION ( 'NONE',  ( 1.251269555650556479E-16, -1.000000000000000000, 0.000000000000000000 ) ) ;
#299 = CARTESIAN_POINT ( 'NONE',  ( 0.000000000000000000, 0.000000000000000000, 0.000000000000000000 ) ) ;
#300 = ORIENTED_EDGE ( 'NONE', *, *, #52, .T. ) ;
#301 = VECTOR ( 'NONE', #24, 1000.000000000000000 ) ;
#302 = DIRECTION ( 'NONE',  ( 1.000000000000000000, 0.000000000000000000, 0.000000000000000000 ) ) ;
#303 = ORIENTED_EDGE ( 'NONE', *, *, #60, .T. ) ;
#304 = ORIENTED_EDGE ( 'NONE', *, *, #195, .T. ) ;
#305 = EDGE_LOOP ( 'NONE', ( #143, #170 ) ) ;
#306 = EDGE_CURVE ( 'NONE', #308, #40, #105, .T. ) ;
#307 = CONICAL_SURFACE ( 'NONE', #249, 1.500000000000010214, 0.7853981633974522758 ) ;
#308 = VERTEX_POINT ( 'NONE', #37 ) ;
#309 = FILL_AREA_STYLE_COLOUR ( '', #155 ) ;
ENDSEC;
END-ISO-10303-21;
