ISO-10303-21;
HEADER;
FILE_DESCRIPTION (( 'STEP AP214' ),
    '1' );
FILE_NAME ('INGUN_17340.STEP',
    '2024-07-22T12:25:58',
    ( '' ),
    ( '' ),
    'SwSTEP 2.0',
    'SolidWorks 2021',
    '' );
FILE_SCHEMA (( 'AUTOMOTIVE_DESIGN' ));
ENDSEC;

DATA;
#1 = DIRECTION ( 'NONE',  ( 0.000000000000000000, 1.000000000000000000, 0.000000000000000000 ) ) ;
#2 = AXIS2_PLACEMENT_3D ( 'NONE', #251, #111, #228 ) ;
#3 = ADVANCED_FACE ( 'NONE', ( #293 ), #350, .T. ) ;
#4 = APPLICATION_PROTOCOL_DEFINITION ( 'draft international standard', 'automotive_design', 1998, #314 ) ;
#5 = EDGE_LOOP ( 'NONE', ( #286, #207, #213, #119 ) ) ;
#6 = CLOSED_SHELL ( 'NONE', ( #223, #258, #303, #164, #133, #85, #75, #3, #68, #231, #125, #30, #22 ) ) ;
#7 = ORIENTED_EDGE ( 'NONE', *, *, #195, .F. ) ;
#8 = DIRECTION ( 'NONE',  ( 0.000000000000000000, 0.000000000000000000, 1.000000000000000000 ) ) ;
#9 = ORIENTED_EDGE ( 'NONE', *, *, #97, .T. ) ;
#10 = CIRCLE ( 'NONE', #2, 1.449999999999999956 ) ;
#11 = PRESENTATION_STYLE_ASSIGNMENT (( #146 ) ) ;
#12 = EDGE_LOOP ( 'NONE', ( #112, #109, #311, #36 ) ) ;
#13 = CIRCLE ( 'NONE', #56, 3.000000000000000444 ) ;
#14 = DIRECTION ( 'NONE',  ( 0.000000000000000000, 1.000000000000000000, 0.000000000000000000 ) ) ;
#15 = DIRECTION ( 'NONE',  ( 0.000000000000000000, 0.000000000000000000, -1.000000000000000000 ) ) ;
#16 = DIRECTION ( 'NONE',  ( 0.000000000000000000, 0.7071067811865426878, 0.7071067811865522357 ) ) ;
#17 = VECTOR ( 'NONE', #16, 1000.000000000000114 ) ;
#18 = CYLINDRICAL_SURFACE ( 'NONE', #367, 1.449999999999999956 ) ;
#19 = EDGE_CURVE ( 'NONE', #204, #79, #38, .T. ) ;
#20 = CARTESIAN_POINT ( 'NONE',  ( 0.000000000000000000, 8.000000000000000000, 0.000000000000000000 ) ) ;
#21 = DIRECTION ( 'NONE',  ( -0.000000000000000000, -1.000000000000000000, -0.000000000000000000 ) ) ;
#22 = ADVANCED_FACE ( 'NONE', ( #188 ), #35, .F. ) ;
#23 = DIRECTION ( 'NONE',  ( 0.000000000000000000, 0.000000000000000000, -1.000000000000000000 ) ) ;
#24 = PLANE ( 'NONE',  #305 ) ;
#25 = VERTEX_POINT ( 'NONE', #264 ) ;
#26 = DIRECTION ( 'NONE',  ( 0.000000000000000000, 0.000000000000000000, 1.000000000000000000 ) ) ;
#27 = VERTEX_POINT ( 'NONE', #157 ) ;
#28 = FACE_OUTER_BOUND ( 'NONE', #250, .T. ) ;
#29 = ORIENTED_EDGE ( 'NONE', *, *, #19, .T. ) ;
#30 = ADVANCED_FACE ( 'NONE', ( #294 ), #263, .T. ) ;
#31 = DIRECTION ( 'NONE',  ( -0.000000000000000000, -1.000000000000000000, -0.000000000000000000 ) ) ;
#32 = ORIENTED_EDGE ( 'NONE', *, *, #267, .T. ) ;
#33 = ORIENTED_EDGE ( 'NONE', *, *, #58, .T. ) ;
#34 = CARTESIAN_POINT ( 'NONE',  ( 3.673940397442060361E-16, 14.50000000000000000, -3.000000000000000000 ) ) ;
#35 = CONICAL_SURFACE ( 'NONE', #227, 1.449999999999999956, 0.7853981633974549403 ) ;
#36 = ORIENTED_EDGE ( 'NONE', *, *, #158, .F. ) ;
#37 =( NAMED_UNIT ( * ) PLANE_ANGLE_UNIT ( ) SI_UNIT ( $, .RADIAN. ) );
#38 = LINE ( 'NONE', #41, #176 ) ;
#39 = STYLED_ITEM ( 'NONE', ( #11 ), #178 ) ;
#40 = CARTESIAN_POINT ( 'NONE',  ( 0.000000000000000000, 8.000000000000000000, 0.000000000000000000 ) ) ;
#41 = CARTESIAN_POINT ( 'NONE',  ( 1.530808498934191817E-16, 8.000000000000000000, -1.250000000000000222 ) ) ;
#42 = LINE ( 'NONE', #160, #17 ) ;
#43 = CONICAL_SURFACE ( 'NONE', #347, 1.449999999999999956, 0.7853981633974549403 ) ;
#44 = FACE_OUTER_BOUND ( 'NONE', #82, .T. ) ;
#45 = AXIS2_PLACEMENT_3D ( 'NONE', #165, #219, #104 ) ;
#46 = FACE_OUTER_BOUND ( 'NONE', #342, .T. ) ;
#47 = EDGE_CURVE ( 'NONE', #317, #25, #91, .T. ) ;
#48 = DIRECTION ( 'NONE',  ( 0.000000000000000000, 0.000000000000000000, 1.000000000000000000 ) ) ;
#49 = PRESENTATION_LAYER_ASSIGNMENT (  '', '', ( #39 ) ) ;
#50 = AXIS2_PLACEMENT_3D ( 'NONE', #40, #184, #69 ) ;
#51 = DIRECTION ( 'NONE',  ( -0.000000000000000000, -1.000000000000000000, -0.000000000000000000 ) ) ;
#52 = CARTESIAN_POINT ( 'NONE',  ( 0.000000000000000000, 16.00000000000000000, 1.449999999999999956 ) ) ;
#53 = DIRECTION ( 'NONE',  ( 0.000000000000000000, 1.000000000000000000, 0.000000000000000000 ) ) ;
#54 = EDGE_LOOP ( 'NONE', ( #315, #337, #335, #117 ) ) ;
#55 = DIRECTION ( 'NONE',  ( 0.000000000000000000, -0.000000000000000000, 1.000000000000000000 ) ) ;
#56 = AXIS2_PLACEMENT_3D ( 'NONE', #72, #310, #369 ) ;
#57 = CARTESIAN_POINT ( 'NONE',  ( 0.000000000000000000, 0.000000000000000000, 0.000000000000000000 ) ) ;
#58 = EDGE_CURVE ( 'NONE', #27, #79, #62, .T. ) ;
#59 = FILL_AREA_STYLE_COLOUR ( '', #103 ) ;
#60 = FACE_OUTER_BOUND ( 'NONE', #277, .T. ) ;
#61 = DIRECTION ( 'NONE',  ( 3.183756821211565729E-17, 0.9656157585206696092, -0.2599734734478725828 ) ) ;
#62 = CIRCLE ( 'NONE', #141, 3.000000000000000444 ) ;
#63 = SURFACE_SIDE_STYLE ('',( #266 ) ) ;
#64 = CYLINDRICAL_SURFACE ( 'NONE', #149, 3.000000000000000444 ) ;
#65 = APPLICATION_PROTOCOL_DEFINITION ( 'draft international standard', 'automotive_design', 1998, #343 ) ;
#66 = FACE_OUTER_BOUND ( 'NONE', #256, .T. ) ;
#67 = VECTOR ( 'NONE', #135, 1000.000000000000000 ) ;
#68 = ADVANCED_FACE ( 'NONE', ( #66 ), #64, .T. ) ;
#69 = DIRECTION ( 'NONE',  ( 0.000000000000000000, 0.000000000000000000, 1.000000000000000000 ) ) ;
#70 = AXIS2_PLACEMENT_3D ( 'NONE', #212, #8, #344 ) ;
#71 =( LENGTH_UNIT ( ) NAMED_UNIT ( * ) SI_UNIT ( .MILLI., .METRE. ) );
#72 = CARTESIAN_POINT ( 'NONE',  ( 0.000000000000000000, 20.00000000000000000, 0.000000000000000000 ) ) ;
#73 = DIRECTION ( 'NONE',  ( -0.000000000000000000, -1.000000000000000000, -0.000000000000000000 ) ) ;
#74 =( GEOMETRIC_REPRESENTATION_CONTEXT ( 3 ) GLOBAL_UNCERTAINTY_ASSIGNED_CONTEXT ( ( #134 ) ) GLOBAL_UNIT_ASSIGNED_CONTEXT ( ( #71, #77, #189 ) ) REPRESENTATION_CONTEXT ( 'NONE', 'WORKASPACE' ) );
#75 = ADVANCED_FACE ( 'NONE', ( #351 ), #96, .F. ) ;
#76 = LINE ( 'NONE', #304, #239 ) ;
#77 =( NAMED_UNIT ( * ) PLANE_ANGLE_UNIT ( ) SI_UNIT ( $, .RADIAN. ) );
#78 = DIRECTION ( 'NONE',  ( -0.000000000000000000, 1.000000000000000000, -0.000000000000000000 ) ) ;
#79 = VERTEX_POINT ( 'NONE', #34 ) ;
#80 = AXIS2_PLACEMENT_3D ( 'NONE', #330, #196, #242 ) ;
#81 = LINE ( 'NONE', #52, #319 ) ;
#82 = EDGE_LOOP ( 'NONE', ( #140, #29, #202, #324 ) ) ;
#83 = CARTESIAN_POINT ( 'NONE',  ( 0.000000000000000000, 20.00000000000000000, 0.000000000000000000 ) ) ;
#84 = ORIENTED_EDGE ( 'NONE', *, *, #323, .T. ) ;
#85 = ADVANCED_FACE ( 'NONE', ( #60 ), #180, .T. ) ;
#86 = FACE_OUTER_BOUND ( 'NONE', #54, .T. ) ;
#87 = ORIENTED_EDGE ( 'NONE', *, *, #359, .T. ) ;
#88 = EDGE_CURVE ( 'NONE', #94, #175, #355, .T. ) ;
#89 = LINE ( 'NONE', #257, #145 ) ;
#90 = ORIENTED_EDGE ( 'NONE', *, *, #47, .T. ) ;
#91 = LINE ( 'NONE', #121, #360 ) ;
#92 = CIRCLE ( 'NONE', #115, 1.449999999999999956 ) ;
#93 = VERTEX_POINT ( 'NONE', #221 ) ;
#94 = VERTEX_POINT ( 'NONE', #101 ) ;
#95 = CIRCLE ( 'NONE', #194, 1.950000000000003508 ) ;
#96 = PLANE ( 'NONE',  #162 ) ;
#97 = EDGE_CURVE ( 'NONE', #326, #79, #76, .T. ) ;
#98 = EDGE_LOOP ( 'NONE', ( #7, #170, #33, #218 ) ) ;
#99 = AXIS2_PLACEMENT_3D ( 'NONE', #199, #116, #26 ) ;
#100 = AXIS2_PLACEMENT_3D ( 'NONE', #273, #73, #161 ) ;
#101 = CARTESIAN_POINT ( 'NONE',  ( 0.000000000000000000, 0.000000000000000000, -1.250000000000000222 ) ) ;
#102 = DIRECTION ( 'NONE',  ( 0.000000000000000000, 0.000000000000000000, 1.000000000000000000 ) ) ;
#103 = COLOUR_RGB ( '',1.000000000000000000, 1.000000000000000000, 1.000000000000000000 ) ;
#104 = DIRECTION ( 'NONE',  ( 0.000000000000000000, 0.000000000000000000, 1.000000000000000000 ) ) ;
#105 = AXIS2_PLACEMENT_3D ( 'NONE', #358, #356, #102 ) ;
#106 = DIRECTION ( 'NONE',  ( 8.659560562354992023E-17, 0.7071067811865426878, -0.7071067811865522357 ) ) ;
#107 = VECTOR ( 'NONE', #31, 1000.000000000000000 ) ;
#108 = LINE ( 'NONE', #283, #107 ) ;
#109 = ORIENTED_EDGE ( 'NONE', *, *, #267, .F. ) ;
#110 = CIRCLE ( 'NONE', #45, 1.250000000000000222 ) ;
#111 = DIRECTION ( 'NONE',  ( 0.000000000000000000, 1.000000000000000000, 0.000000000000000000 ) ) ;
#112 = ORIENTED_EDGE ( 'NONE', *, *, #233, .F. ) ;
#113 = DIRECTION ( 'NONE',  ( 0.000000000000000000, 0.000000000000000000, 1.000000000000000000 ) ) ;
#114 = EDGE_CURVE ( 'NONE', #204, #291, #110, .T. ) ;
#115 = AXIS2_PLACEMENT_3D ( 'NONE', #248, #306, #201 ) ;
#116 = DIRECTION ( 'NONE',  ( 0.000000000000000000, 1.000000000000000000, 0.000000000000000000 ) ) ;
#117 = ORIENTED_EDGE ( 'NONE', *, *, #197, .F. ) ;
#118 = ORIENTED_EDGE ( 'NONE', *, *, #153, .T. ) ;
#119 = ORIENTED_EDGE ( 'NONE', *, *, #359, .F. ) ;
#120 = SHAPE_DEFINITION_REPRESENTATION ( #287, #178 ) ;
#121 = CARTESIAN_POINT ( 'NONE',  ( 1.775737858763661916E-16, 16.00000000000000000, -1.449999999999999956 ) ) ;
#122 = ORIENTED_EDGE ( 'NONE', *, *, #88, .F. ) ;
#123 = AXIS2_PLACEMENT_3D ( 'NONE', #327, #357, #193 ) ;
#124 = DIRECTION ( 'NONE',  ( -0.000000000000000000, -1.000000000000000000, -0.000000000000000000 ) ) ;
#125 = ADVANCED_FACE ( 'NONE', ( #46 ), #18, .F. ) ;
#126 = DIRECTION ( 'NONE',  ( 0.000000000000000000, 1.000000000000000000, 0.000000000000000000 ) ) ;
#127 = CARTESIAN_POINT ( 'NONE',  ( 0.000000000000000000, 8.000000000000000000, -1.250000000000000222 ) ) ;
#128 = FILL_AREA_STYLE ('',( #361 ) ) ;
#129 = UNCERTAINTY_MEASURE_WITH_UNIT (LENGTH_MEASURE( 1.000000000000000082E-05 ), #183, 'distance_accuracy_value', 'NONE');
#130 = CARTESIAN_POINT ( 'NONE',  ( 0.000000000000000000, 20.00000000000000000, 0.000000000000000000 ) ) ;
#131 = VECTOR ( 'NONE', #333, 1000.000000000000000 ) ;
#132 = DIRECTION ( 'NONE',  ( 0.000000000000000000, 0.000000000000000000, 1.000000000000000000 ) ) ;
#133 = ADVANCED_FACE ( 'NONE', ( #191 ), #247, .T. ) ;
#134 = UNCERTAINTY_MEASURE_WITH_UNIT (LENGTH_MEASURE( 1.000000000000000082E-05 ), #71, 'distance_accuracy_value', 'NONE');
#135 = DIRECTION ( 'NONE',  ( -0.000000000000000000, -1.000000000000000000, -0.000000000000000000 ) ) ;
#136 = CARTESIAN_POINT ( 'NONE',  ( 0.000000000000000000, 19.50000000000000355, 0.000000000000000000 ) ) ;
#137 = ORIENTED_EDGE ( 'NONE', *, *, #292, .F. ) ;
#138 =( GEOMETRIC_REPRESENTATION_CONTEXT ( 3 ) GLOBAL_UNCERTAINTY_ASSIGNED_CONTEXT ( ( #192 ) ) GLOBAL_UNIT_ASSIGNED_CONTEXT ( ( #262, #37, #348 ) ) REPRESENTATION_CONTEXT ( 'NONE', 'WORKASPACE' ) );
#139 = CARTESIAN_POINT ( 'NONE',  ( 0.000000000000000000, 14.50000000000000000, 0.000000000000000000 ) ) ;
#140 = ORIENTED_EDGE ( 'NONE', *, *, #312, .T. ) ;
#141 = AXIS2_PLACEMENT_3D ( 'NONE', #238, #14, #240 ) ;
#142 = DIRECTION ( 'NONE',  ( 0.000000000000000000, 0.9656157585206696092, 0.2599734734478725828 ) ) ;
#143 = CYLINDRICAL_SURFACE ( 'NONE', #329, 3.000000000000000444 ) ;
#144 = EDGE_LOOP ( 'NONE', ( #200, #172, #320, #252 ) ) ;
#145 = VECTOR ( 'NONE', #106, 1000.000000000000114 ) ;
#146 = SURFACE_STYLE_USAGE ( .BOTH. , #63 ) ;
#147 = ORIENTED_EDGE ( 'NONE', *, *, #295, .F. ) ;
#148 = PRODUCT_RELATED_PRODUCT_CATEGORY ( 'part', '', ( #234 ) ) ;
#149 = AXIS2_PLACEMENT_3D ( 'NONE', #290, #124, #211 ) ;
#150 = FILL_AREA_STYLE ('',( #59 ) ) ;
#151 = ORIENTED_EDGE ( 'NONE', *, *, #114, .F. ) ;
#152 = ORIENTED_EDGE ( 'NONE', *, *, #362, .T. ) ;
#153 = EDGE_CURVE ( 'NONE', #317, #368, #299, .T. ) ;
#154 =( NAMED_UNIT ( * ) SI_UNIT ( $, .STERADIAN. ) SOLID_ANGLE_UNIT ( ) );
#155 = CIRCLE ( 'NONE', #173, 1.250000000000000222 ) ;
#156 = CARTESIAN_POINT ( 'NONE',  ( 0.000000000000000000, 16.00000000000000000, 0.000000000000000000 ) ) ;
#157 = CARTESIAN_POINT ( 'NONE',  ( 0.000000000000000000, 14.50000000000000000, 3.000000000000000000 ) ) ;
#158 = EDGE_CURVE ( 'NONE', #349, #93, #253, .T. ) ;
#159 = DIRECTION ( 'NONE',  ( 0.000000000000000000, -0.000000000000000000, 1.000000000000000000 ) ) ;
#160 = CARTESIAN_POINT ( 'NONE',  ( 0.000000000000000000, 19.50000000000000355, 1.449999999999999956 ) ) ;
#161 = DIRECTION ( 'NONE',  ( 0.000000000000000000, 0.000000000000000000, 1.000000000000000000 ) ) ;
#162 = AXIS2_PLACEMENT_3D ( 'NONE', #216, #241, #318 ) ;
#163 = DIRECTION ( 'NONE',  ( 0.000000000000000000, 0.000000000000000000, 1.000000000000000000 ) ) ;
#164 = ADVANCED_FACE ( 'NONE', ( #44 ), #321, .T. ) ;
#165 = CARTESIAN_POINT ( 'NONE',  ( 0.000000000000000000, 8.000000000000000000, 0.000000000000000000 ) ) ;
#166 = CIRCLE ( 'NONE', #297, 3.000000000000000444 ) ;
#167 = DIRECTION ( 'NONE',  ( -0.000000000000000000, 1.000000000000000000, -0.000000000000000000 ) ) ;
#168 = PRODUCT_DEFINITION ( 'UNKNOWN', '', #246, #301 ) ;
#169 = FACE_OUTER_BOUND ( 'NONE', #98, .T. ) ;
#170 = ORIENTED_EDGE ( 'NONE', *, *, #295, .T. ) ;
#171 = DIRECTION ( 'NONE',  ( 0.000000000000000000, 1.000000000000000000, 0.000000000000000000 ) ) ;
#172 = ORIENTED_EDGE ( 'NONE', *, *, #220, .T. ) ;
#173 = AXIS2_PLACEMENT_3D ( 'NONE', #340, #334, #210 ) ;
#174 = DIRECTION ( 'NONE',  ( 0.000000000000000000, 1.000000000000000000, 0.000000000000000000 ) ) ;
#175 = VERTEX_POINT ( 'NONE', #298 ) ;
#176 = VECTOR ( 'NONE', #61, 1000.000000000000227 ) ;
#177 = DIRECTION ( 'NONE',  ( 0.000000000000000000, 0.000000000000000000, 1.000000000000000000 ) ) ;
#178 = ADVANCED_BREP_SHAPE_REPRESENTATION ( 'INGUN_17340', ( #190, #70 ), #138 ) ;
#179 = EDGE_LOOP ( 'NONE', ( #152, #118 ) ) ;
#180 = CYLINDRICAL_SURFACE ( 'NONE', #209, 1.250000000000000222 ) ;
#181 = COLOUR_RGB ( '',1.000000000000000000, 1.000000000000000000, 1.000000000000000000 ) ;
#182 = DIRECTION ( 'NONE',  ( -0.000000000000000000, 1.000000000000000000, -0.000000000000000000 ) ) ;
#183 =( LENGTH_UNIT ( ) NAMED_UNIT ( * ) SI_UNIT ( .MILLI., .METRE. ) );
#184 = DIRECTION ( 'NONE',  ( 0.000000000000000000, 1.000000000000000000, 0.000000000000000000 ) ) ;
#185 = EDGE_CURVE ( 'NONE', #93, #349, #95, .T. ) ;
#186 = CARTESIAN_POINT ( 'NONE',  ( 3.673940397442060361E-16, 20.00000000000000000, 3.000000000000000444 ) ) ;
#187 = ORIENTED_EDGE ( 'NONE', *, *, #245, .T. ) ;
#188 = FACE_OUTER_BOUND ( 'NONE', #12, .T. ) ;
#189 =( NAMED_UNIT ( * ) SI_UNIT ( $, .STERADIAN. ) SOLID_ANGLE_UNIT ( ) );
#190 = MANIFOLD_SOLID_BREP ( 'Fase1', #6 ) ;
#191 = FACE_OUTER_BOUND ( 'NONE', #144, .T. ) ;
#192 = UNCERTAINTY_MEASURE_WITH_UNIT (LENGTH_MEASURE( 1.000000000000000082E-05 ), #262, 'distance_accuracy_value', 'NONE');
#193 = DIRECTION ( 'NONE',  ( 0.000000000000000000, 0.000000000000000000, 1.000000000000000000 ) ) ;
#194 = AXIS2_PLACEMENT_3D ( 'NONE', #130, #270, #272 ) ;
#195 = EDGE_CURVE ( 'NONE', #370, #326, #331, .T. ) ;
#196 = DIRECTION ( 'NONE',  ( -0.000000000000000000, -1.000000000000000000, -0.000000000000000000 ) ) ;
#197 = EDGE_CURVE ( 'NONE', #352, #93, #42, .T. ) ;
#198 = PRESENTATION_STYLE_ASSIGNMENT (( #243 ) ) ;
#199 = CARTESIAN_POINT ( 'NONE',  ( 0.000000000000000000, 19.50000000000000355, 0.000000000000000000 ) ) ;
#200 = ORIENTED_EDGE ( 'NONE', *, *, #312, .F. ) ;
#201 = DIRECTION ( 'NONE',  ( 0.000000000000000000, 0.000000000000000000, 1.000000000000000000 ) ) ;
#202 = ORIENTED_EDGE ( 'NONE', *, *, #58, .F. ) ;
#203 = FACE_BOUND ( 'NONE', #279, .T. ) ;
#204 = VERTEX_POINT ( 'NONE', #127 ) ;
#205 = VECTOR ( 'NONE', #142, 1000.000000000000227 ) ;
#206 = CARTESIAN_POINT ( 'NONE',  ( 0.000000000000000000, 8.000000000000000000, 1.250000000000000222 ) ) ;
#207 = ORIENTED_EDGE ( 'NONE', *, *, #114, .T. ) ;
#208 = EDGE_CURVE ( 'NONE', #326, #370, #13, .T. ) ;
#209 = AXIS2_PLACEMENT_3D ( 'NONE', #328, #274, #15 ) ;
#210 = DIRECTION ( 'NONE',  ( 0.000000000000000000, 0.000000000000000000, 1.000000000000000000 ) ) ;
#211 = DIRECTION ( 'NONE',  ( 0.000000000000000000, 0.000000000000000000, -1.000000000000000000 ) ) ;
#212 = CARTESIAN_POINT ( 'NONE',  ( 0.000000000000000000, 0.000000000000000000, 0.000000000000000000 ) ) ;
#213 = ORIENTED_EDGE ( 'NONE', *, *, #284, .T. ) ;
#214 = CARTESIAN_POINT ( 'NONE',  ( 0.000000000000000000, 19.50000000000000355, 0.000000000000000000 ) ) ;
#215 =( NAMED_UNIT ( * ) PLANE_ANGLE_UNIT ( ) SI_UNIT ( $, .RADIAN. ) );
#216 = CARTESIAN_POINT ( 'NONE',  ( 0.000000000000000000, 0.000000000000000000, 0.000000000000000000 ) ) ;
#217 = CIRCLE ( 'NONE', #280, 1.250000000000000222 ) ;
#218 = ORIENTED_EDGE ( 'NONE', *, *, #97, .F. ) ;
#219 = DIRECTION ( 'NONE',  ( 0.000000000000000000, 1.000000000000000000, 0.000000000000000000 ) ) ;
#220 = EDGE_CURVE ( 'NONE', #291, #175, #224, .T. ) ;
#221 = CARTESIAN_POINT ( 'NONE',  ( 0.000000000000000000, 20.00000000000000000, 1.950000000000003508 ) ) ;
#222 = PRESENTATION_LAYER_ASSIGNMENT (  '', '', ( #265 ) ) ;
#223 = ADVANCED_FACE ( 'NONE', ( #86 ), #43, .F. ) ;
#224 = LINE ( 'NONE', #366, #67 ) ;
#225 = CARTESIAN_POINT ( 'NONE',  ( 0.000000000000000000, 19.50000000000000355, 1.449999999999999956 ) ) ;
#226 = ORIENTED_EDGE ( 'NONE', *, *, #158, .T. ) ;
#227 = AXIS2_PLACEMENT_3D ( 'NONE', #214, #268, #345 ) ;
#228 = DIRECTION ( 'NONE',  ( 0.000000000000000000, 0.000000000000000000, 1.000000000000000000 ) ) ;
#229 = CARTESIAN_POINT ( 'NONE',  ( 0.000000000000000000, 8.000000000000000000, -1.250000000000000222 ) ) ;
#230 = ORIENTED_EDGE ( 'NONE', *, *, #362, .F. ) ;
#231 = ADVANCED_FACE ( 'NONE', ( #203, #249 ), #24, .T. ) ;
#232 = CARTESIAN_POINT ( 'NONE',  ( 0.000000000000000000, 20.00000000000000000, 0.000000000000000000 ) ) ;
#233 = EDGE_CURVE ( 'NONE', #25, #349, #89, .T. ) ;
#234 = PRODUCT ( 'INGUN_17340', 'INGUN_17340', '', ( #235 ) ) ;
#235 = PRODUCT_CONTEXT ( 'NONE', #343, 'mechanical' ) ;
#236 = EDGE_LOOP ( 'NONE', ( #122, #137 ) ) ;
#237 = ORIENTED_EDGE ( 'NONE', *, *, #185, .T. ) ;
#238 = CARTESIAN_POINT ( 'NONE',  ( 0.000000000000000000, 14.50000000000000000, 0.000000000000000000 ) ) ;
#239 = VECTOR ( 'NONE', #21, 1000.000000000000000 ) ;
#240 = DIRECTION ( 'NONE',  ( 0.000000000000000000, 0.000000000000000000, 1.000000000000000000 ) ) ;
#241 = DIRECTION ( 'NONE',  ( 0.000000000000000000, 1.000000000000000000, 0.000000000000000000 ) ) ;
#242 = DIRECTION ( 'NONE',  ( 0.000000000000000000, 0.000000000000000000, -1.000000000000000000 ) ) ;
#243 = SURFACE_STYLE_USAGE ( .BOTH. , #300 ) ;
#244 = MECHANICAL_DESIGN_GEOMETRIC_PRESENTATION_REPRESENTATION (  '', ( #39 ), #341 ) ;
#245 = EDGE_CURVE ( 'NONE', #204, #94, #281, .T. ) ;
#246 = PRODUCT_DEFINITION_FORMATION_WITH_SPECIFIED_SOURCE ( 'ANY', '', #234, .NOT_KNOWN. ) ;
#247 = CYLINDRICAL_SURFACE ( 'NONE', #80, 1.250000000000000222 ) ;
#248 = CARTESIAN_POINT ( 'NONE',  ( 0.000000000000000000, 19.50000000000000355, 0.000000000000000000 ) ) ;
#249 = FACE_OUTER_BOUND ( 'NONE', #285, .T. ) ;
#250 = EDGE_LOOP ( 'NONE', ( #269, #90, #308, #346 ) ) ;
#251 = CARTESIAN_POINT ( 'NONE',  ( 0.000000000000000000, 16.00000000000000000, 0.000000000000000000 ) ) ;
#252 = ORIENTED_EDGE ( 'NONE', *, *, #245, .F. ) ;
#253 = CIRCLE ( 'NONE', #100, 1.950000000000003508 ) ;
#254 = EDGE_CURVE ( 'NONE', #25, #352, #92, .T. ) ;
#255 = CARTESIAN_POINT ( 'NONE',  ( 1.530808498934191817E-16, 8.000000000000000000, 1.250000000000000222 ) ) ;
#256 = EDGE_LOOP ( 'NONE', ( #147, #282, #9, #87 ) ) ;
#257 = CARTESIAN_POINT ( 'NONE',  ( 1.775737858763661916E-16, 19.50000000000000355, -1.449999999999999956 ) ) ;
#258 = ADVANCED_FACE ( 'NONE', ( #28 ), #338, .F. ) ;
#259 = ORIENTED_EDGE ( 'NONE', *, *, #220, .F. ) ;
#260 = AXIS2_PLACEMENT_3D ( 'NONE', #354, #126, #163 ) ;
#261 = ORIENTED_EDGE ( 'NONE', *, *, #195, .T. ) ;
#262 =( LENGTH_UNIT ( ) NAMED_UNIT ( * ) SI_UNIT ( .MILLI., .METRE. ) );
#263 = PLANE ( 'NONE',  #271 ) ;
#264 = CARTESIAN_POINT ( 'NONE',  ( 1.775737858763661916E-16, 19.50000000000000355, -1.449999999999999956 ) ) ;
#265 = STYLED_ITEM ( 'NONE', ( #198 ), #190 ) ;
#266 = SURFACE_STYLE_FILL_AREA ( #150 ) ;
#267 = EDGE_CURVE ( 'NONE', #352, #25, #353, .T. ) ;
#268 = DIRECTION ( 'NONE',  ( 0.000000000000000000, 1.000000000000000000, 0.000000000000000000 ) ) ;
#269 = ORIENTED_EDGE ( 'NONE', *, *, #153, .F. ) ;
#270 = DIRECTION ( 'NONE',  ( -0.000000000000000000, -1.000000000000000000, -0.000000000000000000 ) ) ;
#271 = AXIS2_PLACEMENT_3D ( 'NONE', #156, #322, #159 ) ;
#272 = DIRECTION ( 'NONE',  ( 0.000000000000000000, 0.000000000000000000, 1.000000000000000000 ) ) ;
#273 = CARTESIAN_POINT ( 'NONE',  ( 0.000000000000000000, 20.00000000000000000, 0.000000000000000000 ) ) ;
#274 = DIRECTION ( 'NONE',  ( -0.000000000000000000, -1.000000000000000000, -0.000000000000000000 ) ) ;
#275 = DIRECTION ( 'NONE',  ( 0.000000000000000000, 0.000000000000000000, 1.000000000000000000 ) ) ;
#276 = CARTESIAN_POINT ( 'NONE',  ( 0.000000000000000000, 20.00000000000000000, -3.000000000000000444 ) ) ;
#277 = EDGE_LOOP ( 'NONE', ( #259, #151, #187, #288 ) ) ;
#278 = DIRECTION ( 'NONE',  ( 0.000000000000000000, 0.000000000000000000, 1.000000000000000000 ) ) ;
#279 = EDGE_LOOP ( 'NONE', ( #237, #226 ) ) ;
#280 = AXIS2_PLACEMENT_3D ( 'NONE', #57, #1, #177 ) ;
#281 = LINE ( 'NONE', #229, #131 ) ;
#282 = ORIENTED_EDGE ( 'NONE', *, *, #208, .F. ) ;
#283 = CARTESIAN_POINT ( 'NONE',  ( 3.673940397442060361E-16, 20.00000000000000000, 3.000000000000000444 ) ) ;
#284 = EDGE_CURVE ( 'NONE', #291, #27, #363, .T. ) ;
#285 = EDGE_LOOP ( 'NONE', ( #365, #261 ) ) ;
#286 = ORIENTED_EDGE ( 'NONE', *, *, #19, .F. ) ;
#287 = PRODUCT_DEFINITION_SHAPE ( 'NONE', 'NONE',  #168 ) ;
#288 = ORIENTED_EDGE ( 'NONE', *, *, #88, .T. ) ;
#289 = MECHANICAL_DESIGN_GEOMETRIC_PRESENTATION_REPRESENTATION (  '', ( #265 ), #74 ) ;
#290 = CARTESIAN_POINT ( 'NONE',  ( 0.000000000000000000, 20.00000000000000000, 0.000000000000000000 ) ) ;
#291 = VERTEX_POINT ( 'NONE', #255 ) ;
#292 = EDGE_CURVE ( 'NONE', #175, #94, #217, .T. ) ;
#293 = FACE_OUTER_BOUND ( 'NONE', #5, .T. ) ;
#294 = FACE_OUTER_BOUND ( 'NONE', #179, .T. ) ;
#295 = EDGE_CURVE ( 'NONE', #370, #27, #108, .T. ) ;
#296 = SURFACE_STYLE_FILL_AREA ( #128 ) ;
#297 = AXIS2_PLACEMENT_3D ( 'NONE', #139, #171, #278 ) ;
#298 = CARTESIAN_POINT ( 'NONE',  ( 1.530808498934191817E-16, 0.000000000000000000, 1.250000000000000222 ) ) ;
#299 = CIRCLE ( 'NONE', #260, 1.449999999999999956 ) ;
#300 = SURFACE_SIDE_STYLE ('',( #296 ) ) ;
#301 = PRODUCT_DEFINITION_CONTEXT ( 'detailed design', #314, 'design' ) ;
#302 = DIRECTION ( 'NONE',  ( 0.000000000000000000, 1.000000000000000000, 0.000000000000000000 ) ) ;
#303 = ADVANCED_FACE ( 'NONE', ( #169 ), #143, .T. ) ;
#304 = CARTESIAN_POINT ( 'NONE',  ( 0.000000000000000000, 20.00000000000000000, -3.000000000000000444 ) ) ;
#305 = AXIS2_PLACEMENT_3D ( 'NONE', #83, #53, #55 ) ;
#306 = DIRECTION ( 'NONE',  ( 0.000000000000000000, 1.000000000000000000, 0.000000000000000000 ) ) ;
#307 = AXIS2_PLACEMENT_3D ( 'NONE', #20, #302, #48 ) ;
#308 = ORIENTED_EDGE ( 'NONE', *, *, #254, .T. ) ;
#309 = DIRECTION ( 'NONE',  ( -0.000000000000000000, 1.000000000000000000, -0.000000000000000000 ) ) ;
#310 = DIRECTION ( 'NONE',  ( 0.000000000000000000, 1.000000000000000000, 0.000000000000000000 ) ) ;
#311 = ORIENTED_EDGE ( 'NONE', *, *, #197, .T. ) ;
#312 = EDGE_CURVE ( 'NONE', #291, #204, #155, .T. ) ;
#313 = CARTESIAN_POINT ( 'NONE',  ( 0.000000000000000000, 16.00000000000000000, 0.000000000000000000 ) ) ;
#314 = APPLICATION_CONTEXT ( 'automotive_design' ) ;
#315 = ORIENTED_EDGE ( 'NONE', *, *, #254, .F. ) ;
#316 = CARTESIAN_POINT ( 'NONE',  ( 1.775737858763661916E-16, 16.00000000000000000, -1.449999999999999956 ) ) ;
#317 = VERTEX_POINT ( 'NONE', #316 ) ;
#318 = DIRECTION ( 'NONE',  ( 0.000000000000000000, -0.000000000000000000, 1.000000000000000000 ) ) ;
#319 = VECTOR ( 'NONE', #309, 1000.000000000000000 ) ;
#320 = ORIENTED_EDGE ( 'NONE', *, *, #292, .T. ) ;
#321 = CONICAL_SURFACE ( 'NONE', #307, 1.250000000000000222, 0.2629947316809194691 ) ;
#322 = DIRECTION ( 'NONE',  ( 0.000000000000000000, 1.000000000000000000, 0.000000000000000000 ) ) ;
#323 = EDGE_CURVE ( 'NONE', #368, #352, #81, .T. ) ;
#324 = ORIENTED_EDGE ( 'NONE', *, *, #284, .F. ) ;
#325 = AXIS2_PLACEMENT_3D ( 'NONE', #313, #78, #275 ) ;
#326 = VERTEX_POINT ( 'NONE', #276 ) ;
#327 = CARTESIAN_POINT ( 'NONE',  ( 0.000000000000000000, 0.000000000000000000, 0.000000000000000000 ) ) ;
#328 = CARTESIAN_POINT ( 'NONE',  ( 0.000000000000000000, 8.000000000000000000, 0.000000000000000000 ) ) ;
#329 = AXIS2_PLACEMENT_3D ( 'NONE', #232, #51, #23 ) ;
#330 = CARTESIAN_POINT ( 'NONE',  ( 0.000000000000000000, 8.000000000000000000, 0.000000000000000000 ) ) ;
#331 = CIRCLE ( 'NONE', #105, 3.000000000000000444 ) ;
#332 = CARTESIAN_POINT ( 'NONE',  ( 0.000000000000000000, 16.00000000000000000, 0.000000000000000000 ) ) ;
#333 = DIRECTION ( 'NONE',  ( -0.000000000000000000, -1.000000000000000000, -0.000000000000000000 ) ) ;
#334 = DIRECTION ( 'NONE',  ( 0.000000000000000000, 1.000000000000000000, 0.000000000000000000 ) ) ;
#335 = ORIENTED_EDGE ( 'NONE', *, *, #185, .F. ) ;
#336 = CARTESIAN_POINT ( 'NONE',  ( 0.000000000000000000, 16.00000000000000000, 1.449999999999999956 ) ) ;
#337 = ORIENTED_EDGE ( 'NONE', *, *, #233, .T. ) ;
#338 = CYLINDRICAL_SURFACE ( 'NONE', #325, 1.449999999999999956 ) ;
#339 = ORIENTED_EDGE ( 'NONE', *, *, #47, .F. ) ;
#340 = CARTESIAN_POINT ( 'NONE',  ( 0.000000000000000000, 8.000000000000000000, 0.000000000000000000 ) ) ;
#341 =( GEOMETRIC_REPRESENTATION_CONTEXT ( 3 ) GLOBAL_UNCERTAINTY_ASSIGNED_CONTEXT ( ( #129 ) ) GLOBAL_UNIT_ASSIGNED_CONTEXT ( ( #183, #215, #154 ) ) REPRESENTATION_CONTEXT ( 'NONE', 'WORKASPACE' ) );
#342 = EDGE_LOOP ( 'NONE', ( #339, #230, #84, #32 ) ) ;
#343 = APPLICATION_CONTEXT ( 'automotive_design' ) ;
#344 = DIRECTION ( 'NONE',  ( 1.000000000000000000, 0.000000000000000000, 0.000000000000000000 ) ) ;
#345 = DIRECTION ( 'NONE',  ( 0.000000000000000000, 0.000000000000000000, 1.000000000000000000 ) ) ;
#346 = ORIENTED_EDGE ( 'NONE', *, *, #323, .F. ) ;
#347 = AXIS2_PLACEMENT_3D ( 'NONE', #136, #174, #113 ) ;
#348 =( NAMED_UNIT ( * ) SI_UNIT ( $, .STERADIAN. ) SOLID_ANGLE_UNIT ( ) );
#349 = VERTEX_POINT ( 'NONE', #364 ) ;
#350 = CONICAL_SURFACE ( 'NONE', #50, 1.250000000000000222, 0.2629947316809194691 ) ;
#351 = FACE_OUTER_BOUND ( 'NONE', #236, .T. ) ;
#352 = VERTEX_POINT ( 'NONE', #225 ) ;
#353 = CIRCLE ( 'NONE', #99, 1.449999999999999956 ) ;
#354 = CARTESIAN_POINT ( 'NONE',  ( 0.000000000000000000, 16.00000000000000000, 0.000000000000000000 ) ) ;
#355 = CIRCLE ( 'NONE', #123, 1.250000000000000222 ) ;
#356 = DIRECTION ( 'NONE',  ( 0.000000000000000000, 1.000000000000000000, 0.000000000000000000 ) ) ;
#357 = DIRECTION ( 'NONE',  ( 0.000000000000000000, 1.000000000000000000, 0.000000000000000000 ) ) ;
#358 = CARTESIAN_POINT ( 'NONE',  ( 0.000000000000000000, 20.00000000000000000, 0.000000000000000000 ) ) ;
#359 = EDGE_CURVE ( 'NONE', #79, #27, #166, .T. ) ;
#360 = VECTOR ( 'NONE', #182, 1000.000000000000000 ) ;
#361 = FILL_AREA_STYLE_COLOUR ( '', #181 ) ;
#362 = EDGE_CURVE ( 'NONE', #368, #317, #10, .T. ) ;
#363 = LINE ( 'NONE', #206, #205 ) ;
#364 = CARTESIAN_POINT ( 'NONE',  ( 2.388061258337343080E-16, 20.00000000000000000, -1.950000000000003508 ) ) ;
#365 = ORIENTED_EDGE ( 'NONE', *, *, #208, .T. ) ;
#366 = CARTESIAN_POINT ( 'NONE',  ( 1.530808498934191817E-16, 8.000000000000000000, 1.250000000000000222 ) ) ;
#367 = AXIS2_PLACEMENT_3D ( 'NONE', #332, #167, #132 ) ;
#368 = VERTEX_POINT ( 'NONE', #336 ) ;
#369 = DIRECTION ( 'NONE',  ( 0.000000000000000000, 0.000000000000000000, 1.000000000000000000 ) ) ;
#370 = VERTEX_POINT ( 'NONE', #186 ) ;
ENDSEC;
END-ISO-10303-21;
