ISO-10303-21;
HEADER;
FILE_DESCRIPTION (( 'STEP AP214' ),
    '1' );
FILE_NAME ('INGUN_33518.STEP',
    '2024-11-25T08:19:02',
    ( '' ),
    ( '' ),
    'SwSTEP 2.0',
    'SolidWorks 2023',
    '' );
FILE_SCHEMA (( 'AUTOMOTIVE_DESIGN' ));
ENDSEC;

DATA;
#1 = AXIS2_PLACEMENT_3D ( 'NONE', #38, #96, #276 ) ;
#2 = DIRECTION ( 'NONE',  ( 0.000000000000000000, 0.000000000000000000, 1.000000000000000000 ) ) ;
#3 = ORIENTED_EDGE ( 'NONE', *, *, #102, .T. ) ;
#4 = VECTOR ( 'NONE', #112, 1000.000000000000000 ) ;
#5 = ORIENTED_EDGE ( 'NONE', *, *, #83, .F. ) ;
#6 = PRESENTATION_LAYER_ASSIGNMENT (  '', '', ( #367 ) ) ;
#7 = SURFACE_SIDE_STYLE ('',( #371 ) ) ;
#8 = COLOUR_RGB ( '',0.7921568627450980005, 0.8196078431372548767, 0.9333333333333333481 ) ;
#9 =( LENGTH_UNIT ( ) NAMED_UNIT ( * ) SI_UNIT ( .MILLI., .METRE. ) );
#10 = CARTESIAN_POINT ( 'NONE',  ( -3.500000000000010214, 0.5000000000000000000, 2.000000000000000000 ) ) ;
#11 = EDGE_CURVE ( 'NONE', #31, #240, #245, .T. ) ;
#12 = DIRECTION ( 'NONE',  ( -0.000000000000000000, -0.000000000000000000, 1.000000000000000000 ) ) ;
#13 =( NAMED_UNIT ( * ) PLANE_ANGLE_UNIT ( ) SI_UNIT ( $, .RADIAN. ) );
#14 = PRODUCT_DEFINITION_CONTEXT ( 'detailed design', #186, 'design' ) ;
#15 = VECTOR ( 'NONE', #12, 1000.000000000000000 ) ;
#16 = CARTESIAN_POINT ( 'NONE',  ( 3.499999999999989342, -0.5000000000000000000, 2.000000000000000000 ) ) ;
#17 = FACE_OUTER_BOUND ( 'NONE', #29, .T. ) ;
#18 = EDGE_CURVE ( 'NONE', #135, #322, #305, .T. ) ;
#19 = PLANE ( 'NONE',  #182 ) ;
#20 = CARTESIAN_POINT ( 'NONE',  ( -1.499999999999999778, 2.899999999999999911, 1.125000000000000000 ) ) ;
#21 = DIRECTION ( 'NONE',  ( 0.000000000000000000, -0.000000000000000000, -1.000000000000000000 ) ) ;
#22 = ADVANCED_FACE ( 'NONE', ( #37 ), #63, .F. ) ;
#23 = DIRECTION ( 'NONE',  ( -0.000000000000000000, -1.000000000000000000, -0.000000000000000000 ) ) ;
#24 = ORIENTED_EDGE ( 'NONE', *, *, #173, .T. ) ;
#25 = SURFACE_STYLE_FILL_AREA ( #261 ) ;
#26 = CLOSED_SHELL ( 'NONE', ( #138, #375, #180, #162 ) ) ;
#27 = ORIENTED_EDGE ( 'NONE', *, *, #295, .F. ) ;
#28 = CARTESIAN_POINT ( 'NONE',  ( -3.500000000000010214, 0.5000000000000000000, -2.000000000000000000 ) ) ;
#29 = EDGE_LOOP ( 'NONE', ( #346, #86 ) ) ;
#30 = ADVANCED_FACE ( 'NONE', ( #99 ), #221, .F. ) ;
#31 = VERTEX_POINT ( 'NONE', #131 ) ;
#32 = DIRECTION ( 'NONE',  ( -0.000000000000000000, -1.000000000000000000, -0.000000000000000000 ) ) ;
#33 = ORIENTED_EDGE ( 'NONE', *, *, #265, .F. ) ;
#34 = DIRECTION ( 'NONE',  ( 0.000000000000000000, 0.000000000000000000, 1.000000000000000000 ) ) ;
#35 =( NAMED_UNIT ( * ) SI_UNIT ( $, .STERADIAN. ) SOLID_ANGLE_UNIT ( ) );
#36 = DIRECTION ( 'NONE',  ( -0.000000000000000000, -1.000000000000000000, -0.000000000000000000 ) ) ;
#37 = FACE_OUTER_BOUND ( 'NONE', #208, .T. ) ;
#38 = CARTESIAN_POINT ( 'NONE',  ( -3.500000000000010214, 0.5000000000000000000, 2.000000000000000000 ) ) ;
#39 = AXIS2_PLACEMENT_3D ( 'NONE', #191, #42, #200 ) ;
#40 = ADVANCED_FACE ( 'NONE', ( #279 ), #308, .F. ) ;
#41 = VECTOR ( 'NONE', #52, 1000.000000000000000 ) ;
#42 = DIRECTION ( 'NONE',  ( 0.000000000000000000, 1.000000000000000000, 0.000000000000000000 ) ) ;
#43 = CARTESIAN_POINT ( 'NONE',  ( 1.500000000000000000, 0.5000000000000000000, 0.000000000000000000 ) ) ;
#44 = EDGE_CURVE ( 'NONE', #120, #301, #252, .T. ) ;
#45 = CARTESIAN_POINT ( 'NONE',  ( -1.500000000000000000, 2.899999999999999911, 0.000000000000000000 ) ) ;
#46 = DIRECTION ( 'NONE',  ( 0.000000000000000000, -0.000000000000000000, 1.000000000000000000 ) ) ;
#47 = DIRECTION ( 'NONE',  ( 0.000000000000000000, 0.000000000000000000, -1.000000000000000000 ) ) ;
#48 = AXIS2_PLACEMENT_3D ( 'NONE', #343, #320, #258 ) ;
#49 = DIRECTION ( 'NONE',  ( 0.000000000000000000, 0.000000000000000000, 1.000000000000000000 ) ) ;
#50 = STYLED_ITEM ( 'NONE', ( #213 ), #347 ) ;
#51 = ORIENTED_EDGE ( 'NONE', *, *, #216, .T. ) ;
#52 = DIRECTION ( 'NONE',  ( -0.000000000000000000, -1.000000000000000000, -0.000000000000000000 ) ) ;
#53 = EDGE_LOOP ( 'NONE', ( #262, #310, #330, #366 ) ) ;
#54 = DIRECTION ( 'NONE',  ( -1.000000000000000000, -0.000000000000000000, -0.000000000000000000 ) ) ;
#55 = EDGE_LOOP ( 'NONE', ( #58, #267, #364, #84 ) ) ;
#56 = EDGE_CURVE ( 'NONE', #116, #154, #384, .T. ) ;
#57 = CARTESIAN_POINT ( 'NONE',  ( -3.500000000000010214, 0.5000000000000000000, 2.000000000000000000 ) ) ;
#58 = ORIENTED_EDGE ( 'NONE', *, *, #324, .F. ) ;
#59 = CLOSED_SHELL ( 'NONE', ( #145, #126, #97, #150 ) ) ;
#60 = LINE ( 'NONE', #360, #71 ) ;
#61 = ORIENTED_EDGE ( 'NONE', *, *, #352, .F. ) ;
#62 = AXIS2_PLACEMENT_3D ( 'NONE', #171, #223, #316 ) ;
#63 = PLANE ( 'NONE',  #124 ) ;
#64 = PLANE ( 'NONE',  #195 ) ;
#65 = CARTESIAN_POINT ( 'NONE',  ( -3.500000000000010214, -0.5000000000000000000, 2.000000000000000000 ) ) ;
#66 = DIRECTION ( 'NONE',  ( 1.000000000000000000, 0.000000000000000000, -0.000000000000000000 ) ) ;
#67 = DIRECTION ( 'NONE',  ( 0.000000000000000000, 0.000000000000000000, 1.000000000000000000 ) ) ;
#68 = DIRECTION ( 'NONE',  ( 0.000000000000000000, 1.000000000000000000, 0.000000000000000000 ) ) ;
#69 = EDGE_CURVE ( 'NONE', #301, #393, #215, .T. ) ;
#70 = DIRECTION ( 'NONE',  ( 1.000000000000000000, -0.000000000000000000, 0.000000000000000000 ) ) ;
#71 = VECTOR ( 'NONE', #355, 1000.000000000000000 ) ;
#72 = UNCERTAINTY_MEASURE_WITH_UNIT (LENGTH_MEASURE( 1.000000000000000082E-05 ), #280, 'distance_accuracy_value', 'NONE');
#73 = CARTESIAN_POINT ( 'NONE',  ( 3.499999999999987566, 0.5000000000000000000, -2.000000000000000000 ) ) ;
#74 = ORIENTED_EDGE ( 'NONE', *, *, #56, .F. ) ;
#75 = AXIS2_PLACEMENT_3D ( 'NONE', #275, #125, #370 ) ;
#76 = DIRECTION ( 'NONE',  ( -0.000000000000000000, -1.000000000000000000, -0.000000000000000000 ) ) ;
#77 = FACE_OUTER_BOUND ( 'NONE', #53, .T. ) ;
#78 = VECTOR ( 'NONE', #32, 1000.000000000000000 ) ;
#79 = CARTESIAN_POINT ( 'NONE',  ( 3.499999999999989342, 0.5000000000000000000, 2.000000000000000000 ) ) ;
#80 =( LENGTH_UNIT ( ) NAMED_UNIT ( * ) SI_UNIT ( .MILLI., .METRE. ) );
#81 = VERTEX_POINT ( 'NONE', #333 ) ;
#82 = CARTESIAN_POINT ( 'NONE',  ( 1.500000000000000000, 2.899999999999999911, -1.125000000000000888 ) ) ;
#83 = EDGE_CURVE ( 'NONE', #122, #235, #342, .T. ) ;
#84 = ORIENTED_EDGE ( 'NONE', *, *, #11, .T. ) ;
#85 = CARTESIAN_POINT ( 'NONE',  ( 1.500000000000000000, 2.899999999999999911, -1.125000000000000888 ) ) ;
#86 = ORIENTED_EDGE ( 'NONE', *, *, #132, .F. ) ;
#87 = MANIFOLD_SOLID_BREP ( 'Aufsatz-Linear austragen1[2]', #26 ) ;
#88 = AXIS2_PLACEMENT_3D ( 'NONE', #45, #76, #378 ) ;
#89 = ORIENTED_EDGE ( 'NONE', *, *, #18, .F. ) ;
#90 = ADVANCED_FACE ( 'NONE', ( #273 ), #123, .T. ) ;
#91 = PRODUCT_CONTEXT ( 'NONE', #274, 'mechanical' ) ;
#92 = EDGE_LOOP ( 'NONE', ( #3, #325 ) ) ;
#93 = MECHANICAL_DESIGN_GEOMETRIC_PRESENTATION_REPRESENTATION (  '', ( #367 ), #202 ) ;
#94 = CARTESIAN_POINT ( 'NONE',  ( -3.500000000000010214, 0.5000000000000000000, 2.000000000000000000 ) ) ;
#95 = FACE_OUTER_BOUND ( 'NONE', #387, .T. ) ;
#96 = DIRECTION ( 'NONE',  ( 0.000000000000000000, 0.000000000000000000, -1.000000000000000000 ) ) ;
#97 = ADVANCED_FACE ( 'NONE', ( #95 ), #64, .T. ) ;
#98 = APPLICATION_PROTOCOL_DEFINITION ( 'draft international standard', 'automotive_design', 1998, #186 ) ;
#99 = FACE_OUTER_BOUND ( 'NONE', #271, .T. ) ;
#100 = VECTOR ( 'NONE', #268, 1000.000000000000000 ) ;
#101 = CARTESIAN_POINT ( 'NONE',  ( -3.500000000000010214, 0.5000000000000000000, 2.000000000000000000 ) ) ;
#102 = EDGE_CURVE ( 'NONE', #293, #241, #121, .T. ) ;
#103 = CARTESIAN_POINT ( 'NONE',  ( -1.500000000000000000, 0.5000000000000000000, -1.125000000000000000 ) ) ;
#104 =( GEOMETRIC_REPRESENTATION_CONTEXT ( 3 ) GLOBAL_UNCERTAINTY_ASSIGNED_CONTEXT ( ( #317 ) ) GLOBAL_UNIT_ASSIGNED_CONTEXT ( ( #80, #119, #263 ) ) REPRESENTATION_CONTEXT ( 'NONE', 'WORKASPACE' ) );
#105 = DIRECTION ( 'NONE',  ( 0.000000000000000000, 1.000000000000000000, 0.000000000000000000 ) ) ;
#106 = VERTEX_POINT ( 'NONE', #20 ) ;
#107 = CARTESIAN_POINT ( 'NONE',  ( -1.499999999999999778, 0.5000000000000000000, 1.125000000000000000 ) ) ;
#108 = AXIS2_PLACEMENT_3D ( 'NONE', #73, #318, #21 ) ;
#109 = FACE_OUTER_BOUND ( 'NONE', #176, .T. ) ;
#110 = FILL_AREA_STYLE ('',( #266 ) ) ;
#111 = VECTOR ( 'NONE', #54, 1000.000000000000000 ) ;
#112 = DIRECTION ( 'NONE',  ( -0.000000000000000000, -1.000000000000000000, -0.000000000000000000 ) ) ;
#113 = EDGE_LOOP ( 'NONE', ( #359, #181, #362, #197 ) ) ;
#114 = ADVANCED_FACE ( 'NONE', ( #281 ), #199, .F. ) ;
#115 = DIRECTION ( 'NONE',  ( 1.000000000000000000, 0.000000000000000000, 0.000000000000000000 ) ) ;
#116 = VERTEX_POINT ( 'NONE', #107 ) ;
#117 = LINE ( 'NONE', #175, #100 ) ;
#118 = ORIENTED_EDGE ( 'NONE', *, *, #44, .F. ) ;
#119 =( NAMED_UNIT ( * ) PLANE_ANGLE_UNIT ( ) SI_UNIT ( $, .RADIAN. ) );
#120 = VERTEX_POINT ( 'NONE', #382 ) ;
#121 = CIRCLE ( 'NONE', #277, 1.125000000000000888 ) ;
#122 = VERTEX_POINT ( 'NONE', #16 ) ;
#123 = PLANE ( 'NONE',  #75 ) ;
#124 = AXIS2_PLACEMENT_3D ( 'NONE', #368, #222, #158 ) ;
#125 = DIRECTION ( 'NONE',  ( 0.000000000000000000, -1.000000000000000000, 0.000000000000000000 ) ) ;
#126 = ADVANCED_FACE ( 'NONE', ( #77 ), #253, .T. ) ;
#127 =( NAMED_UNIT ( * ) PLANE_ANGLE_UNIT ( ) SI_UNIT ( $, .RADIAN. ) );
#128 = DIRECTION ( 'NONE',  ( 0.000000000000000000, 0.000000000000000000, -1.000000000000000000 ) ) ;
#129 =( NAMED_UNIT ( * ) SI_UNIT ( $, .STERADIAN. ) SOLID_ANGLE_UNIT ( ) );
#130 = DIRECTION ( 'NONE',  ( 0.000000000000000000, 1.000000000000000000, 0.000000000000000000 ) ) ;
#131 = CARTESIAN_POINT ( 'NONE',  ( 1.500000000000000000, 0.5000000000000000000, -1.125000000000000888 ) ) ;
#132 = EDGE_CURVE ( 'NONE', #240, #31, #337, .T. ) ;
#133 = LINE ( 'NONE', #224, #160 ) ;
#134 = DIRECTION ( 'NONE',  ( 0.000000000000000000, 1.000000000000000000, 0.000000000000000000 ) ) ;
#135 = VERTEX_POINT ( 'NONE', #193 ) ;
#136 =( GEOMETRIC_REPRESENTATION_CONTEXT ( 3 ) GLOBAL_UNCERTAINTY_ASSIGNED_CONTEXT ( ( #163 ) ) GLOBAL_UNIT_ASSIGNED_CONTEXT ( ( #9, #127, #129 ) ) REPRESENTATION_CONTEXT ( 'NONE', 'WORKASPACE' ) );
#137 = CARTESIAN_POINT ( 'NONE',  ( -1.500000000000000000, 2.899999999999999911, 0.000000000000000000 ) ) ;
#138 = ADVANCED_FACE ( 'NONE', ( #109 ), #350, .T. ) ;
#139 = CARTESIAN_POINT ( 'NONE',  ( 1.500000000000000000, 2.899999999999999911, 0.000000000000000000 ) ) ;
#140 = AXIS2_PLACEMENT_3D ( 'NONE', #226, #164, #194 ) ;
#141 = PLANE ( 'NONE',  #48 ) ;
#142 = ADVANCED_BREP_SHAPE_REPRESENTATION ( 'INGUN_33518', ( #347, #353, #87, #230 ), #136 ) ;
#143 = FILL_AREA_STYLE_COLOUR ( '', #196 ) ;
#144 = ORIENTED_EDGE ( 'NONE', *, *, #324, .T. ) ;
#145 = ADVANCED_FACE ( 'NONE', ( #283 ), #228, .T. ) ;
#146 = CARTESIAN_POINT ( 'NONE',  ( 1.500000000000000000, 2.899999999999999911, 0.000000000000000000 ) ) ;
#147 = ORIENTED_EDGE ( 'NONE', *, *, #239, .T. ) ;
#148 = CARTESIAN_POINT ( 'NONE',  ( 1.500000000000000222, 2.899999999999999911, 1.125000000000000888 ) ) ;
#149 = EDGE_LOOP ( 'NONE', ( #179, #74 ) ) ;
#150 = ADVANCED_FACE ( 'NONE', ( #256 ), #141, .F. ) ;
#151 = SURFACE_STYLE_USAGE ( .BOTH. , #388 ) ;
#152 = ORIENTED_EDGE ( 'NONE', *, *, #157, .F. ) ;
#153 = CIRCLE ( 'NONE', #374, 1.125000000000000888 ) ;
#154 = VERTEX_POINT ( 'NONE', #103 ) ;
#155 = FACE_OUTER_BOUND ( 'NONE', #55, .T. ) ;
#156 = CARTESIAN_POINT ( 'NONE',  ( -1.500000000000000000, 0.5000000000000000000, 0.000000000000000000 ) ) ;
#157 = EDGE_CURVE ( 'NONE', #322, #120, #133, .T. ) ;
#158 = DIRECTION ( 'NONE',  ( 0.000000000000000000, 0.000000000000000000, 1.000000000000000000 ) ) ;
#159 =( LENGTH_UNIT ( ) NAMED_UNIT ( * ) SI_UNIT ( .MILLI., .METRE. ) );
#160 = VECTOR ( 'NONE', #166, 1000.000000000000000 ) ;
#161 = DIRECTION ( 'NONE',  ( 0.000000000000000000, 0.000000000000000000, 1.000000000000000000 ) ) ;
#162 = ADVANCED_FACE ( 'NONE', ( #17 ), #345, .F. ) ;
#163 = UNCERTAINTY_MEASURE_WITH_UNIT (LENGTH_MEASURE( 1.000000000000000082E-05 ), #9, 'distance_accuracy_value', 'NONE');
#164 = DIRECTION ( 'NONE',  ( -0.000000000000000000, -1.000000000000000000, -0.000000000000000000 ) ) ;
#165 = CIRCLE ( 'NONE', #302, 1.125000000000000000 ) ;
#166 = DIRECTION ( 'NONE',  ( -1.000000000000000000, -0.000000000000000000, -0.000000000000000000 ) ) ;
#167 = CARTESIAN_POINT ( 'NONE',  ( -3.500000000000010214, -0.5000000000000000000, 2.000000000000000000 ) ) ;
#168 = ADVANCED_FACE ( 'NONE', ( #229 ), #260, .F. ) ;
#169 = CARTESIAN_POINT ( 'NONE',  ( -1.499999999999999778, 2.899999999999999911, 1.125000000000000000 ) ) ;
#170 = AXIS2_PLACEMENT_3D ( 'NONE', #189, #161, #66 ) ;
#171 = CARTESIAN_POINT ( 'NONE',  ( -1.500000000000000000, 2.899999999999999911, 0.000000000000000000 ) ) ;
#172 = LINE ( 'NONE', #28, #78 ) ;
#173 = EDGE_CURVE ( 'NONE', #393, #122, #254, .T. ) ;
#174 = ORIENTED_EDGE ( 'NONE', *, *, #239, .F. ) ;
#175 = CARTESIAN_POINT ( 'NONE',  ( -3.500000000000010214, -0.5000000000000000000, 2.000000000000000000 ) ) ;
#176 = EDGE_LOOP ( 'NONE', ( #214, #144, #225, #27 ) ) ;
#177 = CARTESIAN_POINT ( 'NONE',  ( 1.500000000000000222, 0.5000000000000000000, 1.125000000000000888 ) ) ;
#178 = ORIENTED_EDGE ( 'NONE', *, *, #282, .T. ) ;
#179 = ORIENTED_EDGE ( 'NONE', *, *, #231, .F. ) ;
#180 = ADVANCED_FACE ( 'NONE', ( #284 ), #19, .T. ) ;
#181 = ORIENTED_EDGE ( 'NONE', *, *, #157, .T. ) ;
#182 = AXIS2_PLACEMENT_3D ( 'NONE', #380, #351, #319 ) ;
#183 = DIRECTION ( 'NONE',  ( 0.000000000000000000, 0.000000000000000000, -1.000000000000000000 ) ) ;
#184 = EDGE_CURVE ( 'NONE', #106, #116, #354, .T. ) ;
#185 = CARTESIAN_POINT ( 'NONE',  ( 0.000000000000000000, 0.000000000000000000, 0.000000000000000000 ) ) ;
#186 = APPLICATION_CONTEXT ( 'automotive_design' ) ;
#187 = DIRECTION ( 'NONE',  ( 0.000000000000000000, 0.000000000000000000, 1.000000000000000000 ) ) ;
#188 = SURFACE_STYLE_FILL_AREA ( #110 ) ;
#189 = CARTESIAN_POINT ( 'NONE',  ( -3.500000000000010214, 0.5000000000000000000, -2.000000000000000000 ) ) ;
#190 = ORIENTED_EDGE ( 'NONE', *, *, #173, .F. ) ;
#191 = CARTESIAN_POINT ( 'NONE',  ( 1.500000000000000000, 0.5000000000000000000, 0.000000000000000000 ) ) ;
#192 = UNCERTAINTY_MEASURE_WITH_UNIT (LENGTH_MEASURE( 1.000000000000000082E-05 ), #159, 'distance_accuracy_value', 'NONE');
#193 = CARTESIAN_POINT ( 'NONE',  ( 3.499999999999989342, 0.5000000000000000000, 2.000000000000000000 ) ) ;
#194 = DIRECTION ( 'NONE',  ( 0.000000000000000000, 0.000000000000000000, -1.000000000000000000 ) ) ;
#195 = AXIS2_PLACEMENT_3D ( 'NONE', #137, #68, #315 ) ;
#196 = COLOUR_RGB ( '',0.7921568627450980005, 0.8196078431372548767, 0.9333333333333333481 ) ;
#197 = ORIENTED_EDGE ( 'NONE', *, *, #198, .T. ) ;
#198 = EDGE_CURVE ( 'NONE', #301, #135, #386, .T. ) ;
#199 = PLANE ( 'NONE',  #108 ) ;
#200 = DIRECTION ( 'NONE',  ( 0.000000000000000000, 0.000000000000000000, 1.000000000000000000 ) ) ;
#201 = CARTESIAN_POINT ( 'NONE',  ( -1.500000000000000000, 0.5000000000000000000, 0.000000000000000000 ) ) ;
#202 =( GEOMETRIC_REPRESENTATION_CONTEXT ( 3 ) GLOBAL_UNCERTAINTY_ASSIGNED_CONTEXT ( ( #192 ) ) GLOBAL_UNIT_ASSIGNED_CONTEXT ( ( #159, #270, #341 ) ) REPRESENTATION_CONTEXT ( 'NONE', 'WORKASPACE' ) );
#203 = LINE ( 'NONE', #323, #41 ) ;
#204 = ORIENTED_EDGE ( 'NONE', *, *, #69, .F. ) ;
#205 = CARTESIAN_POINT ( 'NONE',  ( -3.500000000000010214, 0.5000000000000000000, 2.000000000000000000 ) ) ;
#206 = ORIENTED_EDGE ( 'NONE', *, *, #69, .T. ) ;
#207 = LINE ( 'NONE', #148, #4 ) ;
#208 = EDGE_LOOP ( 'NONE', ( #242, #33, #89, #233 ) ) ;
#209 =( GEOMETRIC_REPRESENTATION_CONTEXT ( 3 ) GLOBAL_UNCERTAINTY_ASSIGNED_CONTEXT ( ( #72 ) ) GLOBAL_UNIT_ASSIGNED_CONTEXT ( ( #280, #13, #35 ) ) REPRESENTATION_CONTEXT ( 'NONE', 'WORKASPACE' ) );
#210 = AXIS2_PLACEMENT_3D ( 'NONE', #43, #134, #46 ) ;
#211 = PRESENTATION_LAYER_ASSIGNMENT (  '', '', ( #50 ) ) ;
#212 = CLOSED_SHELL ( 'NONE', ( #22, #30, #168, #40, #114, #90 ) ) ;
#213 = PRESENTATION_STYLE_ASSIGNMENT (( #151 ) ) ;
#214 = ORIENTED_EDGE ( 'NONE', *, *, #369, .F. ) ;
#215 = LINE ( 'NONE', #94, #328 ) ;
#216 = EDGE_CURVE ( 'NONE', #81, #106, #165, .T. ) ;
#217 = SURFACE_STYLE_USAGE ( .BOTH. , #7 ) ;
#218 = VECTOR ( 'NONE', #288, 1000.000000000000000 ) ;
#219 = CARTESIAN_POINT ( 'NONE',  ( 1.500000000000000000, 2.899999999999999911, 0.000000000000000000 ) ) ;
#220 = DIRECTION ( 'NONE',  ( 0.000000000000000000, 0.000000000000000000, -1.000000000000000000 ) ) ;
#221 = PLANE ( 'NONE',  #170 ) ;
#222 = DIRECTION ( 'NONE',  ( -1.000000000000000000, 0.000000000000000000, 0.000000000000000000 ) ) ;
#223 = DIRECTION ( 'NONE',  ( -0.000000000000000000, -1.000000000000000000, -0.000000000000000000 ) ) ;
#224 = CARTESIAN_POINT ( 'NONE',  ( -3.500000000000010214, 0.5000000000000000000, -2.000000000000000000 ) ) ;
#225 = ORIENTED_EDGE ( 'NONE', *, *, #132, .T. ) ;
#226 = CARTESIAN_POINT ( 'NONE',  ( 1.500000000000000000, 2.899999999999999911, 0.000000000000000000 ) ) ;
#227 = STYLED_ITEM ( 'NONE', ( #336 ), #87 ) ;
#228 = CYLINDRICAL_SURFACE ( 'NONE', #62, 1.125000000000000000 ) ;
#229 = FACE_OUTER_BOUND ( 'NONE', #264, .T. ) ;
#230 = AXIS2_PLACEMENT_3D ( 'NONE', #185, #2, #247 ) ;
#231 = EDGE_CURVE ( 'NONE', #154, #116, #361, .T. ) ;
#232 = CARTESIAN_POINT ( 'NONE',  ( -3.500000000000010214, -0.5000000000000000000, -2.000000000000000000 ) ) ;
#233 = ORIENTED_EDGE ( 'NONE', *, *, #243, .T. ) ;
#234 = CARTESIAN_POINT ( 'NONE',  ( 3.499999999999989342, -0.5000000000000000000, -2.000000000000000000 ) ) ;
#235 = VERTEX_POINT ( 'NONE', #234 ) ;
#236 = CARTESIAN_POINT ( 'NONE',  ( 1.500000000000000222, 2.899999999999999911, 1.125000000000000888 ) ) ;
#237 = ORIENTED_EDGE ( 'NONE', *, *, #311, .F. ) ;
#238 = DIRECTION ( 'NONE',  ( 0.000000000000000000, 1.000000000000000000, 0.000000000000000000 ) ) ;
#239 = EDGE_CURVE ( 'NONE', #327, #393, #117, .T. ) ;
#240 = VERTEX_POINT ( 'NONE', #177 ) ;
#241 = VERTEX_POINT ( 'NONE', #236 ) ;
#242 = ORIENTED_EDGE ( 'NONE', *, *, #83, .T. ) ;
#243 = EDGE_CURVE ( 'NONE', #135, #122, #298, .T. ) ;
#244 = DIRECTION ( 'NONE',  ( 0.000000000000000000, 1.000000000000000000, 0.000000000000000000 ) ) ;
#245 = CIRCLE ( 'NONE', #303, 1.125000000000000888 ) ;
#246 = ORIENTED_EDGE ( 'NONE', *, *, #265, .T. ) ;
#247 = DIRECTION ( 'NONE',  ( 1.000000000000000000, 0.000000000000000000, 0.000000000000000000 ) ) ;
#248 = FILL_AREA_STYLE ('',( #314 ) ) ;
#249 = AXIS2_PLACEMENT_3D ( 'NONE', #219, #335, #220 ) ;
#250 = CARTESIAN_POINT ( 'NONE',  ( 3.499999999999989342, -0.5000000000000000000, 2.000000000000000000 ) ) ;
#251 = PRODUCT_RELATED_PRODUCT_CATEGORY ( 'part', '', ( #307 ) ) ;
#252 = LINE ( 'NONE', #10, #15 ) ;
#253 = CYLINDRICAL_SURFACE ( 'NONE', #88, 1.125000000000000000 ) ;
#254 = LINE ( 'NONE', #167, #218 ) ;
#255 = ORIENTED_EDGE ( 'NONE', *, *, #278, .F. ) ;
#256 = FACE_OUTER_BOUND ( 'NONE', #149, .T. ) ;
#257 = MECHANICAL_DESIGN_GEOMETRIC_PRESENTATION_REPRESENTATION (  '', ( #227 ), #209 ) ;
#258 = DIRECTION ( 'NONE',  ( 0.000000000000000000, -0.000000000000000000, 1.000000000000000000 ) ) ;
#259 = AXIS2_PLACEMENT_3D ( 'NONE', #101, #70, #47 ) ;
#260 = PLANE ( 'NONE',  #259 ) ;
#261 = FILL_AREA_STYLE ('',( #143 ) ) ;
#262 = ORIENTED_EDGE ( 'NONE', *, *, #184, .F. ) ;
#263 =( NAMED_UNIT ( * ) SI_UNIT ( $, .STERADIAN. ) SOLID_ANGLE_UNIT ( ) );
#264 = EDGE_LOOP ( 'NONE', ( #147, #204, #118, #331 ) ) ;
#265 = EDGE_CURVE ( 'NONE', #322, #235, #60, .T. ) ;
#266 = FILL_AREA_STYLE_COLOUR ( '', #390 ) ;
#267 = ORIENTED_EDGE ( 'NONE', *, *, #102, .F. ) ;
#268 = DIRECTION ( 'NONE',  ( -0.000000000000000000, -0.000000000000000000, 1.000000000000000000 ) ) ;
#269 = EDGE_LOOP ( 'NONE', ( #24, #385, #357, #206 ) ) ;
#270 =( NAMED_UNIT ( * ) PLANE_ANGLE_UNIT ( ) SI_UNIT ( $, .RADIAN. ) );
#271 = EDGE_LOOP ( 'NONE', ( #178, #255, #152, #246 ) ) ;
#272 = SURFACE_STYLE_USAGE ( .BOTH. , #339 ) ;
#273 = FACE_OUTER_BOUND ( 'NONE', #297, .T. ) ;
#274 = APPLICATION_CONTEXT ( 'automotive_design' ) ;
#275 = CARTESIAN_POINT ( 'NONE',  ( 3.499999999999987566, -0.5000000000000000000, -2.000000000000000000 ) ) ;
#276 = DIRECTION ( 'NONE',  ( -1.000000000000000000, 0.000000000000000000, -0.000000000000000000 ) ) ;
#277 = AXIS2_PLACEMENT_3D ( 'NONE', #139, #105, #376 ) ;
#278 = EDGE_CURVE ( 'NONE', #120, #327, #172, .T. ) ;
#279 = FACE_OUTER_BOUND ( 'NONE', #269, .T. ) ;
#280 =( LENGTH_UNIT ( ) NAMED_UNIT ( * ) SI_UNIT ( .MILLI., .METRE. ) );
#281 = FACE_OUTER_BOUND ( 'NONE', #113, .T. ) ;
#282 = EDGE_CURVE ( 'NONE', #235, #327, #321, .T. ) ;
#283 = FACE_OUTER_BOUND ( 'NONE', #381, .T. ) ;
#284 = FACE_OUTER_BOUND ( 'NONE', #92, .T. ) ;
#285 = MECHANICAL_DESIGN_GEOMETRIC_PRESENTATION_REPRESENTATION (  '', ( #50 ), #104 ) ;
#286 = DIRECTION ( 'NONE',  ( -0.000000000000000000, -1.000000000000000000, -0.000000000000000000 ) ) ;
#287 = VECTOR ( 'NONE', #183, 1000.000000000000000 ) ;
#288 = DIRECTION ( 'NONE',  ( 1.000000000000000000, 0.000000000000000000, 0.000000000000000000 ) ) ;
#289 = DIRECTION ( 'NONE',  ( 0.000000000000000000, 0.000000000000000000, 1.000000000000000000 ) ) ;
#290 = ORIENTED_EDGE ( 'NONE', *, *, #184, .T. ) ;
#291 = CARTESIAN_POINT ( 'NONE',  ( 3.499999999999989342, 0.5000000000000000000, -2.000000000000000000 ) ) ;
#292 = VECTOR ( 'NONE', #115, 1000.000000000000000 ) ;
#293 = VERTEX_POINT ( 'NONE', #85 ) ;
#294 = AXIS2_PLACEMENT_3D ( 'NONE', #156, #130, #67 ) ;
#295 = EDGE_CURVE ( 'NONE', #293, #31, #392, .T. ) ;
#296 = DIRECTION ( 'NONE',  ( 0.000000000000000000, 1.000000000000000000, 0.000000000000000000 ) ) ;
#297 = EDGE_LOOP ( 'NONE', ( #5, #190, #174, #377 ) ) ;
#298 = LINE ( 'NONE', #79, #383 ) ;
#299 = ORIENTED_EDGE ( 'NONE', *, *, #56, .T. ) ;
#300 = DIRECTION ( 'NONE',  ( 0.000000000000000000, 1.000000000000000000, 0.000000000000000000 ) ) ;
#301 = VERTEX_POINT ( 'NONE', #57 ) ;
#302 = AXIS2_PLACEMENT_3D ( 'NONE', #358, #300, #289 ) ;
#303 = AXIS2_PLACEMENT_3D ( 'NONE', #373, #313, #187 ) ;
#304 = PRESENTATION_STYLE_ASSIGNMENT (( #272 ) ) ;
#305 = LINE ( 'NONE', #340, #287 ) ;
#306 = CIRCLE ( 'NONE', #365, 1.125000000000000000 ) ;
#307 = PRODUCT ( 'INGUN_33518', 'INGUN_33518', '', ( #91 ) ) ;
#308 = PLANE ( 'NONE',  #1 ) ;
#309 = SHAPE_DEFINITION_REPRESENTATION ( #312, #142 ) ;
#310 = ORIENTED_EDGE ( 'NONE', *, *, #216, .F. ) ;
#311 = EDGE_CURVE ( 'NONE', #106, #81, #306, .T. ) ;
#312 = PRODUCT_DEFINITION_SHAPE ( 'NONE', 'NONE',  #338 ) ;
#313 = DIRECTION ( 'NONE',  ( 0.000000000000000000, 1.000000000000000000, 0.000000000000000000 ) ) ;
#314 = FILL_AREA_STYLE_COLOUR ( '', #8 ) ;
#315 = DIRECTION ( 'NONE',  ( 0.000000000000000000, -0.000000000000000000, 1.000000000000000000 ) ) ;
#316 = DIRECTION ( 'NONE',  ( 0.000000000000000000, 0.000000000000000000, -1.000000000000000000 ) ) ;
#317 = UNCERTAINTY_MEASURE_WITH_UNIT (LENGTH_MEASURE( 1.000000000000000082E-05 ), #80, 'distance_accuracy_value', 'NONE');
#318 = DIRECTION ( 'NONE',  ( 0.000000000000000000, -1.000000000000000000, 0.000000000000000000 ) ) ;
#319 = DIRECTION ( 'NONE',  ( 0.000000000000000000, -0.000000000000000000, 1.000000000000000000 ) ) ;
#320 = DIRECTION ( 'NONE',  ( 0.000000000000000000, 1.000000000000000000, 0.000000000000000000 ) ) ;
#321 = LINE ( 'NONE', #232, #111 ) ;
#322 = VERTEX_POINT ( 'NONE', #291 ) ;
#323 = CARTESIAN_POINT ( 'NONE',  ( -1.500000000000000000, 2.899999999999999911, -1.125000000000000000 ) ) ;
#324 = EDGE_CURVE ( 'NONE', #241, #240, #207, .T. ) ;
#325 = ORIENTED_EDGE ( 'NONE', *, *, #369, .T. ) ;
#326 = DIRECTION ( 'NONE',  ( 0.000000000000000000, 0.000000000000000000, 1.000000000000000000 ) ) ;
#327 = VERTEX_POINT ( 'NONE', #329 ) ;
#328 = VECTOR ( 'NONE', #36, 1000.000000000000000 ) ;
#329 = CARTESIAN_POINT ( 'NONE',  ( -3.500000000000010214, -0.5000000000000000000, -2.000000000000000000 ) ) ;
#330 = ORIENTED_EDGE ( 'NONE', *, *, #352, .T. ) ;
#331 = ORIENTED_EDGE ( 'NONE', *, *, #278, .T. ) ;
#332 = CYLINDRICAL_SURFACE ( 'NONE', #249, 1.125000000000000888 ) ;
#333 = CARTESIAN_POINT ( 'NONE',  ( -1.500000000000000000, 2.899999999999999911, -1.125000000000000000 ) ) ;
#334 = VECTOR ( 'NONE', #23, 1000.000000000000000 ) ;
#335 = DIRECTION ( 'NONE',  ( -0.000000000000000000, -1.000000000000000000, -0.000000000000000000 ) ) ;
#336 = PRESENTATION_STYLE_ASSIGNMENT (( #217 ) ) ;
#337 = CIRCLE ( 'NONE', #39, 1.125000000000000888 ) ;
#338 = PRODUCT_DEFINITION ( 'UNKNOWN', '', #344, #14 ) ;
#339 = SURFACE_SIDE_STYLE ('',( #188 ) ) ;
#340 = CARTESIAN_POINT ( 'NONE',  ( 3.499999999999989342, 0.5000000000000000000, 2.000000000000000000 ) ) ;
#341 =( NAMED_UNIT ( * ) SI_UNIT ( $, .STERADIAN. ) SOLID_ANGLE_UNIT ( ) );
#342 = LINE ( 'NONE', #250, #349 ) ;
#343 = CARTESIAN_POINT ( 'NONE',  ( -1.500000000000000000, 0.5000000000000000000, 0.000000000000000000 ) ) ;
#344 = PRODUCT_DEFINITION_FORMATION_WITH_SPECIFIED_SOURCE ( 'ANY', '', #307, .NOT_KNOWN. ) ;
#345 = PLANE ( 'NONE',  #210 ) ;
#346 = ORIENTED_EDGE ( 'NONE', *, *, #11, .F. ) ;
#347 = MANIFOLD_SOLID_BREP ( 'Linear austragen1', #212 ) ;
#348 = AXIS2_PLACEMENT_3D ( 'NONE', #201, #238, #326 ) ;
#349 = VECTOR ( 'NONE', #128, 1000.000000000000000 ) ;
#350 = CYLINDRICAL_SURFACE ( 'NONE', #140, 1.125000000000000888 ) ;
#351 = DIRECTION ( 'NONE',  ( 0.000000000000000000, 1.000000000000000000, 0.000000000000000000 ) ) ;
#352 = EDGE_CURVE ( 'NONE', #81, #154, #203, .T. ) ;
#353 = MANIFOLD_SOLID_BREP ( 'Aufsatz-Linear austragen1[1]', #59 ) ;
#354 = LINE ( 'NONE', #169, #391 ) ;
#355 = DIRECTION ( 'NONE',  ( -0.000000000000000000, -1.000000000000000000, -0.000000000000000000 ) ) ;
#356 = CARTESIAN_POINT ( 'NONE',  ( -1.500000000000000000, 2.899999999999999911, 0.000000000000000000 ) ) ;
#357 = ORIENTED_EDGE ( 'NONE', *, *, #198, .F. ) ;
#358 = CARTESIAN_POINT ( 'NONE',  ( -1.500000000000000000, 2.899999999999999911, 0.000000000000000000 ) ) ;
#359 = ORIENTED_EDGE ( 'NONE', *, *, #18, .T. ) ;
#360 = CARTESIAN_POINT ( 'NONE',  ( 3.499999999999989342, 0.5000000000000000000, -2.000000000000000000 ) ) ;
#361 = CIRCLE ( 'NONE', #348, 1.125000000000000000 ) ;
#362 = ORIENTED_EDGE ( 'NONE', *, *, #44, .T. ) ;
#363 = DIRECTION ( 'NONE',  ( -0.000000000000000000, -1.000000000000000000, -0.000000000000000000 ) ) ;
#364 = ORIENTED_EDGE ( 'NONE', *, *, #295, .T. ) ;
#365 = AXIS2_PLACEMENT_3D ( 'NONE', #356, #296, #49 ) ;
#366 = ORIENTED_EDGE ( 'NONE', *, *, #231, .T. ) ;
#367 = STYLED_ITEM ( 'NONE', ( #304 ), #353 ) ;
#368 = CARTESIAN_POINT ( 'NONE',  ( 3.499999999999989342, 0.5000000000000000000, 2.000000000000000000 ) ) ;
#369 = EDGE_CURVE ( 'NONE', #241, #293, #153, .T. ) ;
#370 = DIRECTION ( 'NONE',  ( 0.000000000000000000, -0.000000000000000000, -1.000000000000000000 ) ) ;
#371 = SURFACE_STYLE_FILL_AREA ( #248 ) ;
#372 = APPLICATION_PROTOCOL_DEFINITION ( 'draft international standard', 'automotive_design', 1998, #274 ) ;
#373 = CARTESIAN_POINT ( 'NONE',  ( 1.500000000000000000, 0.5000000000000000000, 0.000000000000000000 ) ) ;
#374 = AXIS2_PLACEMENT_3D ( 'NONE', #146, #244, #34 ) ;
#375 = ADVANCED_FACE ( 'NONE', ( #155 ), #332, .T. ) ;
#376 = DIRECTION ( 'NONE',  ( 0.000000000000000000, 0.000000000000000000, 1.000000000000000000 ) ) ;
#377 = ORIENTED_EDGE ( 'NONE', *, *, #282, .F. ) ;
#378 = DIRECTION ( 'NONE',  ( 0.000000000000000000, 0.000000000000000000, -1.000000000000000000 ) ) ;
#379 = PRESENTATION_LAYER_ASSIGNMENT (  '', '', ( #227 ) ) ;
#380 = CARTESIAN_POINT ( 'NONE',  ( 1.500000000000000000, 2.899999999999999911, 0.000000000000000000 ) ) ;
#381 = EDGE_LOOP ( 'NONE', ( #237, #290, #299, #61 ) ) ;
#382 = CARTESIAN_POINT ( 'NONE',  ( -3.500000000000010214, 0.5000000000000000000, -2.000000000000000000 ) ) ;
#383 = VECTOR ( 'NONE', #363, 1000.000000000000000 ) ;
#384 = CIRCLE ( 'NONE', #294, 1.125000000000000000 ) ;
#385 = ORIENTED_EDGE ( 'NONE', *, *, #243, .F. ) ;
#386 = LINE ( 'NONE', #205, #292 ) ;
#387 = EDGE_LOOP ( 'NONE', ( #51, #389 ) ) ;
#388 = SURFACE_SIDE_STYLE ('',( #25 ) ) ;
#389 = ORIENTED_EDGE ( 'NONE', *, *, #311, .T. ) ;
#390 = COLOUR_RGB ( '',0.7921568627450980005, 0.8196078431372548767, 0.9333333333333333481 ) ;
#391 = VECTOR ( 'NONE', #286, 1000.000000000000000 ) ;
#392 = LINE ( 'NONE', #82, #334 ) ;
#393 = VERTEX_POINT ( 'NONE', #65 ) ;
ENDSEC;
END-ISO-10303-21;
