ISO-10303-21;
HEADER;
FILE_DESCRIPTION (( 'STEP AP214' ),
    '1' );
FILE_NAME ('17806~3.STEP',
    '2018-03-23T10:33:27',
    ( '' ),
    ( '' ),
    'SwSTEP 2.0',
    'SolidWorks 2016',
    '' );
FILE_SCHEMA (( 'AUTOMOTIVE_DESIGN' ));
ENDSEC;

DATA;
#1 = COLOUR_RGB ( '',0.5019607843137254800, 1.000000000000000000, 0.5019607843137254800 ) ;
#2 = ORIENTED_EDGE ( 'NONE', *, *, #162, .T. ) ;
#3 = AXIS2_PLACEMENT_3D ( 'NONE', #9, #169, #189 ) ;
#4 = VECTOR ( 'NONE', #150, 1000.000000000000200 ) ;
#5 = FACE_OUTER_BOUND ( 'NONE', #248, .T. ) ;
#6 = ADVANCED_FACE ( 'NONE', ( #98 ), #168, .T. ) ;
#7 = CARTESIAN_POINT ( 'NONE',  ( 0.0000000000000000000, 5.000000000000000900, 0.0000000000000000000 ) ) ;
#8 = EDGE_CURVE ( 'NONE', #71, #115, #83, .T. ) ;
#9 = CARTESIAN_POINT ( 'NONE',  ( 0.0000000000000000000, 5.000000000000000900, 0.0000000000000000000 ) ) ;
#10 = ORIENTED_EDGE ( 'NONE', *, *, #135, .T. ) ;
#11 = ADVANCED_FACE ( 'NONE', ( #128 ), #263, .T. ) ;
#12 = CARTESIAN_POINT ( 'NONE',  ( 0.0000000000000000000, 0.0000000000000000000, -1.500000000000000000 ) ) ;
#13 = AXIS2_PLACEMENT_3D ( 'NONE', #228, #207, #152 ) ;
#14 = VECTOR ( 'NONE', #101, 1000.000000000000000 ) ;
#15 = ORIENTED_EDGE ( 'NONE', *, *, #8, .F. ) ;
#16 = CARTESIAN_POINT ( 'NONE',  ( 0.0000000000000000000, 0.0000000000000000000, 0.0000000000000000000 ) ) ;
#17 = AXIS2_PLACEMENT_3D ( 'NONE', #16, #147, #310 ) ;
#18 = DIRECTION ( 'NONE',  ( 0.0000000000000000000, 1.000000000000000000, 0.0000000000000000000 ) ) ;
#19 = EDGE_CURVE ( 'NONE', #44, #302, #66, .T. ) ;
#20 = CIRCLE ( 'NONE', #13, 1.211324865405186700 ) ;
#21 = CARTESIAN_POINT ( 'NONE',  ( 2.143131898507868300E-016, 7.000000000000000900, 1.500000000000000000 ) ) ;
#22 = CARTESIAN_POINT ( 'NONE',  ( 0.0000000000000000000, 7.000000000000000900, 0.0000000000000000000 ) ) ;
#23 = CARTESIAN_POINT ( 'NONE',  ( 1.836970198721029900E-016, 0.0000000000000000000, 1.500000000000000000 ) ) ;
#24 = FACE_OUTER_BOUND ( 'NONE', #318, .T. ) ;
#25 = FILL_AREA_STYLE ('',( #249 ) ) ;
#26 = DIRECTION ( 'NONE',  ( 0.0000000000000000000, 0.0000000000000000000, -1.000000000000000000 ) ) ;
#27 = CONICAL_SURFACE ( 'NONE', #218, 2.000000000000000000, 0.2449786631268641400 ) ;
#28 = ORIENTED_EDGE ( 'NONE', *, *, #55, .T. ) ;
#29 = ORIENTED_EDGE ( 'NONE', *, *, #220, .T. ) ;
#30 = STYLED_ITEM ( 'NONE', ( #82 ), #139 ) ;
#31 = CIRCLE ( 'NONE', #210, 1.500000000000000000 ) ;
#32 = CARTESIAN_POINT ( 'NONE',  ( 0.0000000000000000000, 0.5000000000000034400, 0.0000000000000000000 ) ) ;
#33 = ORIENTED_EDGE ( 'NONE', *, *, #68, .T. ) ;
#34 = EDGE_CURVE ( 'NONE', #198, #44, #57, .T. ) ;
#35 = DIRECTION ( 'NONE',  ( -0.0000000000000000000, -1.000000000000000000, -0.0000000000000000000 ) ) ;
#36 = DIRECTION ( 'NONE',  ( -0.0000000000000000000, -1.000000000000000000, -0.0000000000000000000 ) ) ;
#37 = ADVANCED_FACE ( 'NONE', ( #187 ), #205, .T. ) ;
#38 = DIRECTION ( 'NONE',  ( 0.0000000000000000000, 1.000000000000000000, 0.0000000000000000000 ) ) ;
#39 = EDGE_LOOP ( 'NONE', ( #180, #76 ) ) ;
#40 = EDGE_CURVE ( 'NONE', #232, #242, #293, .T. ) ;
#41 = DIRECTION ( 'NONE',  ( 0.0000000000000000000, 0.0000000000000000000, -1.000000000000000000 ) ) ;
#42 = AXIS2_PLACEMENT_3D ( 'NONE', #204, #292, #106 ) ;
#43 = CARTESIAN_POINT ( 'NONE',  ( 0.0000000000000000000, 0.0000000000000000000, 1.211324865405186700 ) ) ;
#44 = VERTEX_POINT ( 'NONE', #304 ) ;
#45 = ORIENTED_EDGE ( 'NONE', *, *, #235, .F. ) ;
#46 = DIRECTION ( 'NONE',  ( 0.0000000000000000000, 0.0000000000000000000, -1.000000000000000000 ) ) ;
#47 = EDGE_CURVE ( 'NONE', #97, #103, #246, .T. ) ;
#48 = DIRECTION ( 'NONE',  ( 0.0000000000000000000, -0.9701425001453319900, -0.2425356250363330000 ) ) ;
#49 = PRODUCT_CONTEXT ( 'NONE', #315, 'mechanical' ) ;
#50 = FACE_OUTER_BOUND ( 'NONE', #300, .T. ) ;
#51 = UNCERTAINTY_MEASURE_WITH_UNIT (LENGTH_MEASURE( 1.000000000000000100E-005 ), #157, 'distance_accuracy_value', 'NONE');
#52 = DIRECTION ( 'NONE',  ( 0.0000000000000000000, 0.0000000000000000000, -1.000000000000000000 ) ) ;
#53 = EDGE_CURVE ( 'NONE', #302, #238, #250, .T. ) ;
#54 = PRODUCT_DEFINITION_FORMATION_WITH_SPECIFIED_SOURCE ( 'ANY', '', #56, .NOT_KNOWN. ) ;
#55 = EDGE_CURVE ( 'NONE', #44, #198, #134, .T. ) ;
#56 = PRODUCT ( '17806~3', '17806~3', '', ( #49 ) ) ;
#57 = CIRCLE ( 'NONE', #86, 1.500000000000000000 ) ;
#58 = EDGE_CURVE ( 'NONE', #97, #138, #70, .T. ) ;
#59 = LINE ( 'NONE', #311, #14 ) ;
#60 = ORIENTED_EDGE ( 'NONE', *, *, #235, .T. ) ;
#61 = DIRECTION ( 'NONE',  ( 0.0000000000000000000, 0.0000000000000000000, -1.000000000000000000 ) ) ;
#62 = ADVANCED_FACE ( 'NONE', ( #24, #113 ), #67, .T. ) ;
#63 = ADVANCED_FACE ( 'NONE', ( #253 ), #132, .T. ) ;
#64 = VECTOR ( 'NONE', #48, 999.9999999999998900 ) ;
#65 = DIRECTION ( 'NONE',  ( 0.0000000000000000000, 0.0000000000000000000, -1.000000000000000000 ) ) ;
#66 = LINE ( 'NONE', #303, #192 ) ;
#67 = PLANE ( 'NONE',  #99 ) ;
#68 = EDGE_CURVE ( 'NONE', #103, #97, #305, .T. ) ;
#69 = CARTESIAN_POINT ( 'NONE',  ( 1.660207658933545200E-016, 0.0000000000000000000, -1.211324865405186700 ) ) ;
#70 = LINE ( 'NONE', #12, #120 ) ;
#71 = VERTEX_POINT ( 'NONE', #69 ) ;
#72 = CARTESIAN_POINT ( 'NONE',  ( 0.0000000000000000000, 10.80000000000000100, -1.500000000000000000 ) ) ;
#73 = DIRECTION ( 'NONE',  ( 2.970204768799478800E-017, -0.9701425001453319900, 0.2425356250363330000 ) ) ;
#74 = DIRECTION ( 'NONE',  ( 0.0000000000000000000, 0.0000000000000000000, -1.000000000000000000 ) ) ;
#75 = COLOUR_RGB ( '',0.5019607843137254800, 1.000000000000000000, 0.5019607843137254800 ) ;
#76 = ORIENTED_EDGE ( 'NONE', *, *, #68, .F. ) ;
#77 = CARTESIAN_POINT ( 'NONE',  ( 0.0000000000000000000, 0.0000000000000000000, 1.211324865405186700 ) ) ;
#78 =( GEOMETRIC_REPRESENTATION_CONTEXT ( 3 ) GLOBAL_UNCERTAINTY_ASSIGNED_CONTEXT ( ( #89 ) ) GLOBAL_UNIT_ASSIGNED_CONTEXT ( ( #108, #126, #272 ) ) REPRESENTATION_CONTEXT ( 'NONE', 'WORKASPACE' ) );
#79 = APPLICATION_CONTEXT ( 'automotive_design' ) ;
#80 = DIRECTION ( 'NONE',  ( -0.0000000000000000000, -1.000000000000000000, -0.0000000000000000000 ) ) ;
#81 = AXIS2_PLACEMENT_3D ( 'NONE', #289, #18, #172 ) ;
#82 = PRESENTATION_STYLE_ASSIGNMENT (( #176 ) ) ;
#83 = CIRCLE ( 'NONE', #255, 1.211324865405186700 ) ;
#84 = MECHANICAL_DESIGN_GEOMETRIC_PRESENTATION_REPRESENTATION (  '', ( #156 ), #78 ) ;
#85 = CIRCLE ( 'NONE', #264, 1.500000000000000000 ) ;
#86 = AXIS2_PLACEMENT_3D ( 'NONE', #7, #36, #216 ) ;
#87 = ADVANCED_FACE ( 'NONE', ( #50 ), #281, .T. ) ;
#88 = EDGE_CURVE ( 'NONE', #242, #232, #259, .T. ) ;
#89 = UNCERTAINTY_MEASURE_WITH_UNIT (LENGTH_MEASURE( 1.000000000000000100E-005 ), #108, 'distance_accuracy_value', 'NONE');
#90 = VECTOR ( 'NONE', #73, 999.9999999999998900 ) ;
#91 = ORIENTED_EDGE ( 'NONE', *, *, #88, .F. ) ;
#92 = PRESENTATION_LAYER_ASSIGNMENT (  '', '', ( #30 ) ) ;
#93 = DIRECTION ( 'NONE',  ( 0.0000000000000000000, 0.0000000000000000000, -1.000000000000000000 ) ) ;
#94 = CYLINDRICAL_SURFACE ( 'NONE', #283, 1.500000000000000000 ) ;
#95 = ORIENTED_EDGE ( 'NONE', *, *, #55, .F. ) ;
#96 =( NAMED_UNIT ( * ) SI_UNIT ( $, .STERADIAN. ) SOLID_ANGLE_UNIT ( ) );
#97 = VERTEX_POINT ( 'NONE', #72 ) ;
#98 = FACE_OUTER_BOUND ( 'NONE', #39, .T. ) ;
#99 = AXIS2_PLACEMENT_3D ( 'NONE', #146, #217, #239 ) ;
#100 = SURFACE_SIDE_STYLE ('',( #308 ) ) ;
#101 = DIRECTION ( 'NONE',  ( -0.0000000000000000000, -1.000000000000000000, -0.0000000000000000000 ) ) ;
#102 =( NAMED_UNIT ( * ) PLANE_ANGLE_UNIT ( ) SI_UNIT ( $, .RADIAN. ) );
#103 = VERTEX_POINT ( 'NONE', #197 ) ;
#104 = EDGE_CURVE ( 'NONE', #238, #302, #236, .T. ) ;
#105 = DIRECTION ( 'NONE',  ( -0.0000000000000000000, -1.000000000000000000, -0.0000000000000000000 ) ) ;
#106 = DIRECTION ( 'NONE',  ( 1.000000000000000000, 0.0000000000000000000, 0.0000000000000000000 ) ) ;
#107 = AXIS2_PLACEMENT_3D ( 'NONE', #219, #38, #195 ) ;
#108 =( LENGTH_UNIT ( ) NAMED_UNIT ( * ) SI_UNIT ( .MILLI., .METRE. ) );
#109 = LINE ( 'NONE', #226, #4 ) ;
#110 = CARTESIAN_POINT ( 'NONE',  ( 1.836970198721029900E-016, 0.5000000000000034400, 1.500000000000000000 ) ) ;
#111 = CARTESIAN_POINT ( 'NONE',  ( 0.0000000000000000000, 5.000000000000000900, -2.000000000000000000 ) ) ;
#112 = ORIENTED_EDGE ( 'NONE', *, *, #104, .F. ) ;
#113 = FACE_BOUND ( 'NONE', #254, .T. ) ;
#114 = VERTEX_POINT ( 'NONE', #21 ) ;
#115 = VERTEX_POINT ( 'NONE', #43 ) ;
#116 = DIRECTION ( 'NONE',  ( 0.0000000000000000000, 0.0000000000000000000, 1.000000000000000000 ) ) ;
#117 = ORIENTED_EDGE ( 'NONE', *, *, #88, .T. ) ;
#118 = DIRECTION ( 'NONE',  ( -0.0000000000000000000, -1.000000000000000000, -0.0000000000000000000 ) ) ;
#119 = AXIS2_PLACEMENT_3D ( 'NONE', #240, #237, #93 ) ;
#120 = VECTOR ( 'NONE', #35, 1000.000000000000000 ) ;
#121 = DIRECTION ( 'NONE',  ( 0.0000000000000000000, 0.0000000000000000000, -1.000000000000000000 ) ) ;
#122 = DIRECTION ( 'NONE',  ( -0.0000000000000000000, -1.000000000000000000, -0.0000000000000000000 ) ) ;
#123 = EDGE_LOOP ( 'NONE', ( #274, #33, #184, #188 ) ) ;
#124 = CARTESIAN_POINT ( 'NONE',  ( 0.0000000000000000000, 7.000000000000000900, -1.500000000000000000 ) ) ;
#125 = DIRECTION ( 'NONE',  ( -0.0000000000000000000, -1.000000000000000000, -0.0000000000000000000 ) ) ;
#126 =( NAMED_UNIT ( * ) PLANE_ANGLE_UNIT ( ) SI_UNIT ( $, .RADIAN. ) );
#127 = FACE_OUTER_BOUND ( 'NONE', #143, .T. ) ;
#128 = FACE_OUTER_BOUND ( 'NONE', #260, .T. ) ;
#129 = APPLICATION_PROTOCOL_DEFINITION ( 'draft international standard', 'automotive_design', 1998, #315 ) ;
#130 = EDGE_CURVE ( 'NONE', #114, #232, #215, .T. ) ;
#131 = DIRECTION ( 'NONE',  ( -0.0000000000000000000, -1.000000000000000000, -0.0000000000000000000 ) ) ;
#132 = CYLINDRICAL_SURFACE ( 'NONE', #140, 1.500000000000000000 ) ;
#133 = ORIENTED_EDGE ( 'NONE', *, *, #276, .T. ) ;
#134 = CIRCLE ( 'NONE', #295, 1.500000000000000000 ) ;
#135 = EDGE_CURVE ( 'NONE', #103, #114, #59, .T. ) ;
#136 = ADVANCED_FACE ( 'NONE', ( #137 ), #284, .T. ) ;
#137 = FACE_OUTER_BOUND ( 'NONE', #222, .T. ) ;
#138 = VERTEX_POINT ( 'NONE', #124 ) ;
#139 = MANIFOLD_SOLID_BREP ( 'Fase1', #301 ) ;
#140 = AXIS2_PLACEMENT_3D ( 'NONE', #201, #125, #149 ) ;
#141 = CARTESIAN_POINT ( 'NONE',  ( 0.0000000000000000000, 5.000000000000000900, 0.0000000000000000000 ) ) ;
#142 = DIRECTION ( 'NONE',  ( 0.0000000000000000000, 0.0000000000000000000, -1.000000000000000000 ) ) ;
#143 = EDGE_LOOP ( 'NONE', ( #29, #282, #91, #314 ) ) ;
#144 = ADVANCED_FACE ( 'NONE', ( #5 ), #269, .T. ) ;
#145 = DIRECTION ( 'NONE',  ( -0.0000000000000000000, -1.000000000000000000, -0.0000000000000000000 ) ) ;
#146 = CARTESIAN_POINT ( 'NONE',  ( 1.500000000000000000, 5.000000000000000900, 0.0000000000000000000 ) ) ;
#147 = DIRECTION ( 'NONE',  ( 0.0000000000000000000, 1.000000000000000000, 0.0000000000000000000 ) ) ;
#148 = ORIENTED_EDGE ( 'NONE', *, *, #167, .T. ) ;
#149 = DIRECTION ( 'NONE',  ( 0.0000000000000000000, 0.0000000000000000000, -1.000000000000000000 ) ) ;
#150 = DIRECTION ( 'NONE',  ( 6.123233995736740200E-017, 0.8660254037844397100, -0.4999999999999978900 ) ) ;
#151 = DIRECTION ( 'NONE',  ( 0.0000000000000000000, -1.000000000000000000, -0.0000000000000000000 ) ) ;
#152 = DIRECTION ( 'NONE',  ( 0.0000000000000000000, 0.0000000000000000000, -1.000000000000000000 ) ) ;
#153 = APPLICATION_PROTOCOL_DEFINITION ( 'draft international standard', 'automotive_design', 1998, #79 ) ;
#154 = ORIENTED_EDGE ( 'NONE', *, *, #47, .T. ) ;
#155 = ORIENTED_EDGE ( 'NONE', *, *, #104, .T. ) ;
#156 = STYLED_ITEM ( 'NONE', ( #280 ), #306 ) ;
#157 =( LENGTH_UNIT ( ) NAMED_UNIT ( * ) SI_UNIT ( .MILLI., .METRE. ) );
#158 = MECHANICAL_DESIGN_GEOMETRIC_PRESENTATION_REPRESENTATION (  '', ( #30 ), #174 ) ;
#159 = ORIENTED_EDGE ( 'NONE', *, *, #19, .T. ) ;
#160 = ADVANCED_FACE ( 'NONE', ( #170 ), #94, .T. ) ;
#161 = ORIENTED_EDGE ( 'NONE', *, *, #8, .T. ) ;
#162 = EDGE_CURVE ( 'NONE', #71, #302, #109, .T. ) ;
#163 = DIRECTION ( 'NONE',  ( 0.0000000000000000000, 1.000000000000000000, 0.0000000000000000000 ) ) ;
#164 = LINE ( 'NONE', #23, #214 ) ;
#165 = ORIENTED_EDGE ( 'NONE', *, *, #220, .F. ) ;
#166 = CARTESIAN_POINT ( 'NONE',  ( 0.0000000000000000000, 0.0000000000000000000, 0.0000000000000000000 ) ) ;
#167 = EDGE_CURVE ( 'NONE', #114, #138, #85, .T. ) ;
#168 = PLANE ( 'NONE',  #107 ) ;
#169 = DIRECTION ( 'NONE',  ( -0.0000000000000000000, -1.000000000000000000, -0.0000000000000000000 ) ) ;
#170 = FACE_OUTER_BOUND ( 'NONE', #123, .T. ) ;
#171 = ORIENTED_EDGE ( 'NONE', *, *, #162, .F. ) ;
#172 = DIRECTION ( 'NONE',  ( 0.0000000000000000000, 0.0000000000000000000, -1.000000000000000000 ) ) ;
#173 = DIRECTION ( 'NONE',  ( -0.0000000000000000000, -1.000000000000000000, -0.0000000000000000000 ) ) ;
#174 =( GEOMETRIC_REPRESENTATION_CONTEXT ( 3 ) GLOBAL_UNCERTAINTY_ASSIGNED_CONTEXT ( ( #185 ) ) GLOBAL_UNIT_ASSIGNED_CONTEXT ( ( #221, #102, #96 ) ) REPRESENTATION_CONTEXT ( 'NONE', 'WORKASPACE' ) );
#175 = FACE_OUTER_BOUND ( 'NONE', #211, .T. ) ;
#176 = SURFACE_STYLE_USAGE ( .BOTH. , #100 ) ;
#177 = SURFACE_STYLE_USAGE ( .BOTH. , #317 ) ;
#178 = SHAPE_DEFINITION_REPRESENTATION ( #190, #306 ) ;
#179 =( NAMED_UNIT ( * ) PLANE_ANGLE_UNIT ( ) SI_UNIT ( $, .RADIAN. ) );
#180 = ORIENTED_EDGE ( 'NONE', *, *, #47, .F. ) ;
#181 = CARTESIAN_POINT ( 'NONE',  ( 0.0000000000000000000, 7.000000000000000900, 0.0000000000000000000 ) ) ;
#182 = DIRECTION ( 'NONE',  ( -0.0000000000000000000, -1.000000000000000000, -0.0000000000000000000 ) ) ;
#183 = ORIENTED_EDGE ( 'NONE', *, *, #258, .T. ) ;
#184 = ORIENTED_EDGE ( 'NONE', *, *, #58, .T. ) ;
#185 = UNCERTAINTY_MEASURE_WITH_UNIT (LENGTH_MEASURE( 1.000000000000000100E-005 ), #221, 'distance_accuracy_value', 'NONE');
#186 = CYLINDRICAL_SURFACE ( 'NONE', #234, 1.500000000000000000 ) ;
#187 = FACE_OUTER_BOUND ( 'NONE', #243, .T. ) ;
#188 = ORIENTED_EDGE ( 'NONE', *, *, #167, .F. ) ;
#189 = DIRECTION ( 'NONE',  ( 0.0000000000000000000, 0.0000000000000000000, -1.000000000000000000 ) ) ;
#190 = PRODUCT_DEFINITION_SHAPE ( 'NONE', 'NONE',  #194 ) ;
#191 = ADVANCED_FACE ( 'NONE', ( #127 ), #27, .T. ) ;
#192 = VECTOR ( 'NONE', #261, 1000.000000000000000 ) ;
#193 = DIRECTION ( 'NONE',  ( -0.0000000000000000000, -1.000000000000000000, -0.0000000000000000000 ) ) ;
#194 = PRODUCT_DEFINITION ( 'UNKNOWN', '', #54, #206 ) ;
#195 = DIRECTION ( 'NONE',  ( 0.0000000000000000000, -0.0000000000000000000, 1.000000000000000000 ) ) ;
#196 = AXIS2_PLACEMENT_3D ( 'NONE', #244, #199, #307 ) ;
#197 = CARTESIAN_POINT ( 'NONE',  ( 1.836970198721029900E-016, 10.80000000000000100, 1.500000000000000000 ) ) ;
#198 = VERTEX_POINT ( 'NONE', #313 ) ;
#199 = DIRECTION ( 'NONE',  ( -0.0000000000000000000, -1.000000000000000000, -0.0000000000000000000 ) ) ;
#200 = CARTESIAN_POINT ( 'NONE',  ( 0.0000000000000000000, 0.0000000000000000000, 0.0000000000000000000 ) ) ;
#201 = CARTESIAN_POINT ( 'NONE',  ( 0.0000000000000000000, 0.0000000000000000000, 0.0000000000000000000 ) ) ;
#202 = PRODUCT_RELATED_PRODUCT_CATEGORY ( 'part', '', ( #56 ) ) ;
#203 = SURFACE_STYLE_FILL_AREA ( #25 ) ;
#204 = CARTESIAN_POINT ( 'NONE',  ( 0.0000000000000000000, 0.0000000000000000000, 0.0000000000000000000 ) ) ;
#205 = CYLINDRICAL_SURFACE ( 'NONE', #119, 1.500000000000000000 ) ;
#206 = PRODUCT_DEFINITION_CONTEXT ( 'detailed design', #79, 'design' ) ;
#207 = DIRECTION ( 'NONE',  ( -0.0000000000000000000, -1.000000000000000000, -0.0000000000000000000 ) ) ;
#208 = DIRECTION ( 'NONE',  ( 0.0000000000000000000, 0.0000000000000000000, -1.000000000000000000 ) ) ;
#209 = ORIENTED_EDGE ( 'NONE', *, *, #53, .T. ) ;
#210 = AXIS2_PLACEMENT_3D ( 'NONE', #22, #231, #74 ) ;
#211 = EDGE_LOOP ( 'NONE', ( #28, #60, #155, #233 ) ) ;
#212 = EDGE_CURVE ( 'NONE', #138, #242, #298, .T. ) ;
#213 = ORIENTED_EDGE ( 'NONE', *, *, #212, .T. ) ;
#214 = VECTOR ( 'NONE', #80, 1000.000000000000000 ) ;
#215 = LINE ( 'NONE', #270, #90 ) ;
#216 = DIRECTION ( 'NONE',  ( 0.0000000000000000000, 0.0000000000000000000, -1.000000000000000000 ) ) ;
#217 = DIRECTION ( 'NONE',  ( 0.0000000000000000000, -1.000000000000000000, -0.0000000000000000000 ) ) ;
#218 = AXIS2_PLACEMENT_3D ( 'NONE', #275, #131, #52 ) ;
#219 = CARTESIAN_POINT ( 'NONE',  ( 1.500000000000000000, 10.80000000000000100, 0.0000000000000000000 ) ) ;
#220 = EDGE_CURVE ( 'NONE', #138, #114, #31, .T. ) ;
#221 =( LENGTH_UNIT ( ) NAMED_UNIT ( * ) SI_UNIT ( .MILLI., .METRE. ) );
#222 = EDGE_LOOP ( 'NONE', ( #171, #223, #133, #319 ) ) ;
#223 = ORIENTED_EDGE ( 'NONE', *, *, #258, .F. ) ;
#224 = FILL_AREA_STYLE_COLOUR ( '', #1 ) ;
#225 = AXIS2_PLACEMENT_3D ( 'NONE', #245, #288, #291 ) ;
#226 = CARTESIAN_POINT ( 'NONE',  ( 1.483445119146060300E-016, 0.0000000000000000000, -1.211324865405186700 ) ) ;
#227 = ORIENTED_EDGE ( 'NONE', *, *, #58, .F. ) ;
#228 = CARTESIAN_POINT ( 'NONE',  ( 0.0000000000000000000, 0.0000000000000000000, 0.0000000000000000000 ) ) ;
#229 = CARTESIAN_POINT ( 'NONE',  ( 0.0000000000000000000, 0.5000000000000034400, -1.500000000000000000 ) ) ;
#230 = LINE ( 'NONE', #77, #277 ) ;
#231 = DIRECTION ( 'NONE',  ( -0.0000000000000000000, -1.000000000000000000, -0.0000000000000000000 ) ) ;
#232 = VERTEX_POINT ( 'NONE', #297 ) ;
#233 = ORIENTED_EDGE ( 'NONE', *, *, #19, .F. ) ;
#234 = AXIS2_PLACEMENT_3D ( 'NONE', #252, #105, #208 ) ;
#235 = EDGE_CURVE ( 'NONE', #198, #238, #164, .T. ) ;
#236 = CIRCLE ( 'NONE', #81, 1.500000000000000000 ) ;
#237 = DIRECTION ( 'NONE',  ( -0.0000000000000000000, -1.000000000000000000, -0.0000000000000000000 ) ) ;
#238 = VERTEX_POINT ( 'NONE', #110 ) ;
#239 = DIRECTION ( 'NONE',  ( 0.0000000000000000000, 0.0000000000000000000, -1.000000000000000000 ) ) ;
#240 = CARTESIAN_POINT ( 'NONE',  ( 0.0000000000000000000, 0.0000000000000000000, 0.0000000000000000000 ) ) ;
#241 = ADVANCED_FACE ( 'NONE', ( #175 ), #186, .T. ) ;
#242 = VERTEX_POINT ( 'NONE', #111 ) ;
#243 = EDGE_LOOP ( 'NONE', ( #154, #10, #165, #227 ) ) ;
#244 = CARTESIAN_POINT ( 'NONE',  ( 0.0000000000000000000, 5.000000000000000900, 0.0000000000000000000 ) ) ;
#245 = CARTESIAN_POINT ( 'NONE',  ( 0.0000000000000000000, 10.80000000000000100, 0.0000000000000000000 ) ) ;
#246 = CIRCLE ( 'NONE', #279, 1.500000000000000000 ) ;
#247 = FILL_AREA_STYLE ('',( #224 ) ) ;
#248 = EDGE_LOOP ( 'NONE', ( #183, #161 ) ) ;
#249 = FILL_AREA_STYLE_COLOUR ( '', #75 ) ;
#250 = CIRCLE ( 'NONE', #290, 1.500000000000000000 ) ;
#251 = AXIS2_PLACEMENT_3D ( 'NONE', #166, #163, #116 ) ;
#252 = CARTESIAN_POINT ( 'NONE',  ( 0.0000000000000000000, 0.0000000000000000000, 0.0000000000000000000 ) ) ;
#253 = FACE_OUTER_BOUND ( 'NONE', #278, .T. ) ;
#254 = EDGE_LOOP ( 'NONE', ( #95, #271 ) ) ;
#255 = AXIS2_PLACEMENT_3D ( 'NONE', #286, #118, #65 ) ;
#256 = ORIENTED_EDGE ( 'NONE', *, *, #276, .F. ) ;
#257 = AXIS2_PLACEMENT_3D ( 'NONE', #267, #151, #41 ) ;
#258 = EDGE_CURVE ( 'NONE', #115, #71, #20, .T. ) ;
#259 = CIRCLE ( 'NONE', #320, 2.000000000000000000 ) ;
#260 = EDGE_LOOP ( 'NONE', ( #15, #2, #112, #256 ) ) ;
#261 = DIRECTION ( 'NONE',  ( -0.0000000000000000000, -1.000000000000000000, -0.0000000000000000000 ) ) ;
#262 =( GEOMETRIC_REPRESENTATION_CONTEXT ( 3 ) GLOBAL_UNCERTAINTY_ASSIGNED_CONTEXT ( ( #51 ) ) GLOBAL_UNIT_ASSIGNED_CONTEXT ( ( #157, #179, #273 ) ) REPRESENTATION_CONTEXT ( 'NONE', 'WORKASPACE' ) );
#263 = CONICAL_SURFACE ( 'NONE', #251, 1.211324865405186700, 0.5235987755982964800 ) ;
#264 = AXIS2_PLACEMENT_3D ( 'NONE', #181, #182, #26 ) ;
#265 = CARTESIAN_POINT ( 'NONE',  ( 0.0000000000000000000, 10.80000000000000100, 0.0000000000000000000 ) ) ;
#266 = DIRECTION ( 'NONE',  ( 0.0000000000000000000, 0.0000000000000000000, -1.000000000000000000 ) ) ;
#267 = CARTESIAN_POINT ( 'NONE',  ( 0.0000000000000000000, 0.0000000000000000000, 0.0000000000000000000 ) ) ;
#268 = ORIENTED_EDGE ( 'NONE', *, *, #40, .T. ) ;
#269 = PLANE ( 'NONE',  #257 ) ;
#270 = CARTESIAN_POINT ( 'NONE',  ( 2.449293598294706400E-016, 5.000000000000000900, 2.000000000000000000 ) ) ;
#271 = ORIENTED_EDGE ( 'NONE', *, *, #34, .F. ) ;
#272 =( NAMED_UNIT ( * ) SI_UNIT ( $, .STERADIAN. ) SOLID_ANGLE_UNIT ( ) );
#273 =( NAMED_UNIT ( * ) SI_UNIT ( $, .STERADIAN. ) SOLID_ANGLE_UNIT ( ) );
#274 = ORIENTED_EDGE ( 'NONE', *, *, #135, .F. ) ;
#275 = CARTESIAN_POINT ( 'NONE',  ( 0.0000000000000000000, 5.000000000000000900, 0.0000000000000000000 ) ) ;
#276 = EDGE_CURVE ( 'NONE', #115, #238, #230, .T. ) ;
#277 = VECTOR ( 'NONE', #296, 1000.000000000000200 ) ;
#278 = EDGE_LOOP ( 'NONE', ( #45, #287, #159, #209 ) ) ;
#279 = AXIS2_PLACEMENT_3D ( 'NONE', #265, #145, #121 ) ;
#280 = PRESENTATION_STYLE_ASSIGNMENT (( #177 ) ) ;
#281 = CONICAL_SURFACE ( 'NONE', #196, 2.000000000000000000, 0.2449786631268641400 ) ;
#282 = ORIENTED_EDGE ( 'NONE', *, *, #130, .T. ) ;
#283 = AXIS2_PLACEMENT_3D ( 'NONE', #200, #122, #46 ) ;
#284 = CONICAL_SURFACE ( 'NONE', #17, 1.211324865405186700, 0.5235987755982964800 ) ;
#285 = DIRECTION ( 'NONE',  ( 0.0000000000000000000, 1.000000000000000000, 0.0000000000000000000 ) ) ;
#286 = CARTESIAN_POINT ( 'NONE',  ( 0.0000000000000000000, 0.0000000000000000000, 0.0000000000000000000 ) ) ;
#287 = ORIENTED_EDGE ( 'NONE', *, *, #34, .T. ) ;
#288 = DIRECTION ( 'NONE',  ( -0.0000000000000000000, -1.000000000000000000, -0.0000000000000000000 ) ) ;
#289 = CARTESIAN_POINT ( 'NONE',  ( 0.0000000000000000000, 0.5000000000000034400, 0.0000000000000000000 ) ) ;
#290 = AXIS2_PLACEMENT_3D ( 'NONE', #32, #285, #142 ) ;
#291 = DIRECTION ( 'NONE',  ( 0.0000000000000000000, 0.0000000000000000000, -1.000000000000000000 ) ) ;
#292 = DIRECTION ( 'NONE',  ( 0.0000000000000000000, 0.0000000000000000000, 1.000000000000000000 ) ) ;
#293 = CIRCLE ( 'NONE', #3, 2.000000000000000000 ) ;
#294 = ORIENTED_EDGE ( 'NONE', *, *, #130, .F. ) ;
#295 = AXIS2_PLACEMENT_3D ( 'NONE', #141, #193, #61 ) ;
#296 = DIRECTION ( 'NONE',  ( 0.0000000000000000000, 0.8660254037844397100, 0.4999999999999978900 ) ) ;
#297 = CARTESIAN_POINT ( 'NONE',  ( 2.449293598294706400E-016, 5.000000000000000900, 2.000000000000000000 ) ) ;
#298 = LINE ( 'NONE', #316, #64 ) ;
#299 = ORIENTED_EDGE ( 'NONE', *, *, #40, .F. ) ;
#300 = EDGE_LOOP ( 'NONE', ( #294, #148, #213, #299 ) ) ;
#301 = CLOSED_SHELL ( 'NONE', ( #11, #37, #191, #241, #144, #63, #62, #87, #160, #6, #136 ) ) ;
#302 = VERTEX_POINT ( 'NONE', #229 ) ;
#303 = CARTESIAN_POINT ( 'NONE',  ( 0.0000000000000000000, 0.0000000000000000000, -1.500000000000000000 ) ) ;
#304 = CARTESIAN_POINT ( 'NONE',  ( 0.0000000000000000000, 5.000000000000000900, -1.500000000000000000 ) ) ;
#305 = CIRCLE ( 'NONE', #225, 1.500000000000000000 ) ;
#306 = ADVANCED_BREP_SHAPE_REPRESENTATION ( '17806~3', ( #139, #42 ), #262 ) ;
#307 = DIRECTION ( 'NONE',  ( 0.0000000000000000000, 0.0000000000000000000, -1.000000000000000000 ) ) ;
#308 = SURFACE_STYLE_FILL_AREA ( #247 ) ;
#309 = PRESENTATION_LAYER_ASSIGNMENT (  '', '', ( #156 ) ) ;
#310 = DIRECTION ( 'NONE',  ( 0.0000000000000000000, 0.0000000000000000000, 1.000000000000000000 ) ) ;
#311 = CARTESIAN_POINT ( 'NONE',  ( 1.836970198721029900E-016, 0.0000000000000000000, 1.500000000000000000 ) ) ;
#312 = CARTESIAN_POINT ( 'NONE',  ( 0.0000000000000000000, 5.000000000000000900, 0.0000000000000000000 ) ) ;
#313 = CARTESIAN_POINT ( 'NONE',  ( 1.836970198721029900E-016, 5.000000000000000900, 1.500000000000000000 ) ) ;
#314 = ORIENTED_EDGE ( 'NONE', *, *, #212, .F. ) ;
#315 = APPLICATION_CONTEXT ( 'automotive_design' ) ;
#316 = CARTESIAN_POINT ( 'NONE',  ( 0.0000000000000000000, 5.000000000000000900, -2.000000000000000000 ) ) ;
#317 = SURFACE_SIDE_STYLE ('',( #203 ) ) ;
#318 = EDGE_LOOP ( 'NONE', ( #117, #268 ) ) ;
#319 = ORIENTED_EDGE ( 'NONE', *, *, #53, .F. ) ;
#320 = AXIS2_PLACEMENT_3D ( 'NONE', #312, #173, #266 ) ;
ENDSEC;
END-ISO-10303-21;
