ISO-10303-21;
HEADER;
FILE_DESCRIPTION (( 'STEP AP214' ),
    '1' );
FILE_NAME ('38895~0.STEP',
    '2017-07-04T09:05:22',
    ( '' ),
    ( '' ),
    'SwSTEP 2.0',
    'SolidWorks 2016',
    '' );
FILE_SCHEMA (( 'AUTOMOTIVE_DESIGN' ));
ENDSEC;

DATA;
#1 = CARTESIAN_POINT ( 'NONE',  ( 0.0000000000000000000, 13.69999999999999900, -1.595854811567261900 ) ) ;
#2 = ORIENTED_EDGE ( 'NONE', *, *, #123, .T. ) ;
#3 = DIRECTION ( 'NONE',  ( 0.0000000000000000000, 0.0000000000000000000, -1.000000000000000000 ) ) ;
#4 = CARTESIAN_POINT ( 'NONE',  ( 0.0000000000000000000, 6.999999999999999100, 0.0000000000000000000 ) ) ;
#5 = AXIS2_PLACEMENT_3D ( 'NONE', #153, #244, #65 ) ;
#6 = ORIENTED_EDGE ( 'NONE', *, *, #92, .T. ) ;
#7 = PLANE ( 'NONE',  #335 ) ;
#8 = PRESENTATION_STYLE_ASSIGNMENT (( #188 ) ) ;
#9 = FACE_OUTER_BOUND ( 'NONE', #363, .T. ) ;
#10 = ORIENTED_EDGE ( 'NONE', *, *, #201, .F. ) ;
#11 = CARTESIAN_POINT ( 'NONE',  ( 0.0000000000000000000, 13.99999999999999800, 0.0000000000000000000 ) ) ;
#12 = AXIS2_PLACEMENT_3D ( 'NONE', #11, #209, #269 ) ;
#13 = DIRECTION ( 'NONE',  ( 0.0000000000000000000, 0.0000000000000000000, 1.000000000000000000 ) ) ;
#14 = CARTESIAN_POINT ( 'NONE',  ( 2.449293598294706400E-016, 7.000000000000000000, 2.000000000000000000 ) ) ;
#15 = CARTESIAN_POINT ( 'NONE',  ( 0.0000000000000000000, 0.0000000000000000000, 0.0000000000000000000 ) ) ;
#16 = DIRECTION ( 'NONE',  ( -0.0000000000000000000, -1.000000000000000000, -0.0000000000000000000 ) ) ;
#17 = LINE ( 'NONE', #53, #126 ) ;
#18 = ORIENTED_EDGE ( 'NONE', *, *, #232, .T. ) ;
#19 = ORIENTED_EDGE ( 'NONE', *, *, #92, .F. ) ;
#20 = VERTEX_POINT ( 'NONE', #260 ) ;
#21 = AXIS2_PLACEMENT_3D ( 'NONE', #4, #113, #329 ) ;
#22 = PRODUCT_DEFINITION_FORMATION_WITH_SPECIFIED_SOURCE ( 'ANY', '', #120, .NOT_KNOWN. ) ;
#23 = FACE_OUTER_BOUND ( 'NONE', #86, .T. ) ;
#24 = STYLED_ITEM ( 'NONE', ( #8 ), #62 ) ;
#25 = EDGE_CURVE ( 'NONE', #294, #317, #249, .T. ) ;
#26 = FACE_OUTER_BOUND ( 'NONE', #69, .T. ) ;
#27 = DIRECTION ( 'NONE',  ( 0.0000000000000000000, 0.0000000000000000000, 1.000000000000000000 ) ) ;
#28 = DIRECTION ( 'NONE',  ( -0.0000000000000000000, -1.000000000000000000, -0.0000000000000000000 ) ) ;
#29 = AXIS2_PLACEMENT_3D ( 'NONE', #257, #290, #193 ) ;
#30 = ORIENTED_EDGE ( 'NONE', *, *, #133, .T. ) ;
#31 = ORIENTED_EDGE ( 'NONE', *, *, #261, .T. ) ;
#32 = DIRECTION ( 'NONE',  ( 0.0000000000000000000, -0.8660254037844380400, -0.5000000000000012200 ) ) ;
#33 = DIRECTION ( 'NONE',  ( -0.0000000000000000000, -1.000000000000000000, -0.0000000000000000000 ) ) ;
#34 = DIRECTION ( 'NONE',  ( 0.0000000000000000000, 0.0000000000000000000, -1.000000000000000000 ) ) ;
#35 = CARTESIAN_POINT ( 'NONE',  ( 0.0000000000000000000, 0.0000000000000000000, 0.0000000000000000000 ) ) ;
#36 = CIRCLE ( 'NONE', #251, 2.000000000000000000 ) ;
#37 = EDGE_LOOP ( 'NONE', ( #122, #332, #321, #166 ) ) ;
#38 = AXIS2_PLACEMENT_3D ( 'NONE', #218, #43, #367 ) ;
#39 = EDGE_CURVE ( 'NONE', #343, #323, #279, .T. ) ;
#40 = DIRECTION ( 'NONE',  ( 1.000000000000000000, -0.0000000000000000000, 1.224646799147353200E-016 ) ) ;
#41 = CYLINDRICAL_SURFACE ( 'NONE', #106, 1.000000000000000000 ) ;
#42 = EDGE_LOOP ( 'NONE', ( #285, #76, #211, #216 ) ) ;
#43 = DIRECTION ( 'NONE',  ( 0.0000000000000000000, 1.000000000000000000, 0.0000000000000000000 ) ) ;
#44 = ADVANCED_FACE ( 'NONE', ( #9 ), #96, .T. ) ;
#45 = DIRECTION ( 'NONE',  ( 0.0000000000000000000, 1.000000000000000000, 0.0000000000000000000 ) ) ;
#46 = ADVANCED_FACE ( 'NONE', ( #220, #195 ), #7, .T. ) ;
#47 = CIRCLE ( 'NONE', #347, 0.6000000000000000900 ) ;
#48 = EDGE_CURVE ( 'NONE', #134, #294, #169, .T. ) ;
#49 = ORIENTED_EDGE ( 'NONE', *, *, #339, .T. ) ;
#50 = LINE ( 'NONE', #58, #370 ) ;
#51 = CARTESIAN_POINT ( 'NONE',  ( 0.0000000000000000000, 13.69999999999999900, 0.0000000000000000000 ) ) ;
#52 = VERTEX_POINT ( 'NONE', #303 ) ;
#53 = CARTESIAN_POINT ( 'NONE',  ( 2.449293598294706400E-016, 13.00000000000000200, 2.000000000000000000 ) ) ;
#54 = AXIS2_PLACEMENT_3D ( 'NONE', #255, #197, #104 ) ;
#55 = CIRCLE ( 'NONE', #352, 2.000000000000000000 ) ;
#56 = ORIENTED_EDGE ( 'NONE', *, *, #133, .F. ) ;
#57 = CARTESIAN_POINT ( 'NONE',  ( 0.0000000000000000000, 13.39999999999999900, 0.0000000000000000000 ) ) ;
#58 = CARTESIAN_POINT ( 'NONE',  ( 0.0000000000000000000, 13.00000000000000200, -2.000000000000000000 ) ) ;
#59 = ORIENTED_EDGE ( 'NONE', *, *, #152, .F. ) ;
#60 = MECHANICAL_DESIGN_GEOMETRIC_PRESENTATION_REPRESENTATION (  '', ( #129 ), #192 ) ;
#61 = CARTESIAN_POINT ( 'NONE',  ( 0.0000000000000000000, 7.000000000000000000, -2.000000000000000000 ) ) ;
#62 = ADVANCED_BREP_SHAPE_REPRESENTATION ( '38895~0', ( #132, #310 ), #316 ) ;
#63 = VECTOR ( 'NONE', #273, 1000.000000000000000 ) ;
#64 = ORIENTED_EDGE ( 'NONE', *, *, #339, .F. ) ;
#65 = DIRECTION ( 'NONE',  ( 0.0000000000000000000, 0.0000000000000000000, -1.000000000000000000 ) ) ;
#66 = EDGE_CURVE ( 'NONE', #323, #230, #178, .T. ) ;
#67 = CARTESIAN_POINT ( 'NONE',  ( 0.0000000000000000000, 0.0000000000000000000, 0.0000000000000000000 ) ) ;
#68 = DIRECTION ( 'NONE',  ( 1.224646799147352700E-016, 0.0000000000000000000, -1.000000000000000000 ) ) ;
#69 = EDGE_LOOP ( 'NONE', ( #144, #172, #336, #73 ) ) ;
#70 = DIRECTION ( 'NONE',  ( 0.0000000000000000000, 1.000000000000000000, 0.0000000000000000000 ) ) ;
#71 = DIRECTION ( 'NONE',  ( -0.0000000000000000000, -1.000000000000000000, -0.0000000000000000000 ) ) ;
#72 = CONICAL_SURFACE ( 'NONE', #147, 0.4999999999999987200, 0.7853981633974447300 ) ;
#73 = ORIENTED_EDGE ( 'NONE', *, *, #353, .F. ) ;
#74 = CARTESIAN_POINT ( 'NONE',  ( 1.636185915272278300E-016, 13.99999999999999800, -1.076239569296599400 ) ) ;
#75 = FILL_AREA_STYLE_COLOUR ( '', #266 ) ;
#76 = ORIENTED_EDGE ( 'NONE', *, *, #100, .T. ) ;
#77 = PRESENTATION_LAYER_ASSIGNMENT (  '', '', ( #129 ) ) ;
#78 = CARTESIAN_POINT ( 'NONE',  ( 1.224646799147353200E-016, 0.5000000000000048800, 1.000000000000000000 ) ) ;
#79 = DIRECTION ( 'NONE',  ( 8.659560562354902000E-017, 0.7071067811865500200, -0.7071067811865450200 ) ) ;
#80 = CARTESIAN_POINT ( 'NONE',  ( 0.0000000000000000000, 6.999999999999999100, 0.0000000000000000000 ) ) ;
#81 = DIRECTION ( 'NONE',  ( -0.0000000000000000000, -1.000000000000000000, -0.0000000000000000000 ) ) ;
#82 = AXIS2_PLACEMENT_3D ( 'NONE', #159, #70, #98 ) ;
#83 = TOROIDAL_SURFACE ( 'NONE', #38, 1.076239569296599400, 0.5999999999999999800 ) ;
#84 = FACE_OUTER_BOUND ( 'NONE', #37, .T. ) ;
#85 = EDGE_LOOP ( 'NONE', ( #31, #313 ) ) ;
#86 = EDGE_LOOP ( 'NONE', ( #236, #59, #6, #228 ) ) ;
#87 = CARTESIAN_POINT ( 'NONE',  ( 0.0000000000000000000, 13.69999999999999900, 0.0000000000000000000 ) ) ;
#88 = DIRECTION ( 'NONE',  ( 0.0000000000000000000, 1.000000000000000000, 0.0000000000000000000 ) ) ;
#89 = VECTOR ( 'NONE', #33, 1000.000000000000000 ) ;
#90 = CARTESIAN_POINT ( 'NONE',  ( 0.0000000000000000000, 6.999999999999999100, -1.000000000000000000 ) ) ;
#91 = EDGE_LOOP ( 'NONE', ( #10, #108 ) ) ;
#92 = EDGE_CURVE ( 'NONE', #20, #52, #330, .T. ) ;
#93 =( NAMED_UNIT ( * ) SI_UNIT ( $, .STERADIAN. ) SOLID_ANGLE_UNIT ( ) );
#94 =( LENGTH_UNIT ( ) NAMED_UNIT ( * ) SI_UNIT ( .MILLI., .METRE. ) );
#95 = FACE_OUTER_BOUND ( 'NONE', #308, .T. ) ;
#96 = CONICAL_SURFACE ( 'NONE', #270, 2.000000000000000000, 0.5235987755983002600 ) ;
#97 = CLOSED_SHELL ( 'NONE', ( #190, #282, #345, #158, #44, #224, #252, #102, #46, #99, #371, #187, #365 ) ) ;
#98 = DIRECTION ( 'NONE',  ( 0.0000000000000000000, 0.0000000000000000000, -1.000000000000000000 ) ) ;
#99 = ADVANCED_FACE ( 'NONE', ( #340 ), #41, .T. ) ;
#100 = EDGE_CURVE ( 'NONE', #107, #317, #291, .T. ) ;
#101 = CIRCLE ( 'NONE', #21, 1.000000000000000000 ) ;
#102 = ADVANCED_FACE ( 'NONE', ( #284 ), #210, .T. ) ;
#103 = PRODUCT_RELATED_PRODUCT_CATEGORY ( 'part', '', ( #120 ) ) ;
#104 = DIRECTION ( 'NONE',  ( 0.0000000000000000000, 0.0000000000000000000, 1.000000000000000000 ) ) ;
#105 = FACE_OUTER_BOUND ( 'NONE', #42, .T. ) ;
#106 = AXIS2_PLACEMENT_3D ( 'NONE', #314, #71, #3 ) ;
#107 = VERTEX_POINT ( 'NONE', #225 ) ;
#108 = ORIENTED_EDGE ( 'NONE', *, *, #179, .F. ) ;
#109 = SURFACE_SIDE_STYLE ('',( #354 ) ) ;
#110 = CARTESIAN_POINT ( 'NONE',  ( 0.0000000000000000000, 7.000000000000000000, 0.0000000000000000000 ) ) ;
#111 = DIRECTION ( 'NONE',  ( -0.0000000000000000000, -1.000000000000000000, -0.0000000000000000000 ) ) ;
#112 = DIRECTION ( 'NONE',  ( -0.0000000000000000000, -1.000000000000000000, -0.0000000000000000000 ) ) ;
#113 = DIRECTION ( 'NONE',  ( -0.0000000000000000000, -1.000000000000000000, -0.0000000000000000000 ) ) ;
#114 = VECTOR ( 'NONE', #167, 1000.000000000000000 ) ;
#115 = DIRECTION ( 'NONE',  ( 0.0000000000000000000, 1.000000000000000000, 0.0000000000000000000 ) ) ;
#116 = VERTEX_POINT ( 'NONE', #74 ) ;
#117 = ORIENTED_EDGE ( 'NONE', *, *, #305, .F. ) ;
#118 = PLANE ( 'NONE',  #276 ) ;
#119 = AXIS2_PLACEMENT_3D ( 'NONE', #131, #45, #341 ) ;
#120 = PRODUCT ( '38895~0', '38895~0', '', ( #258 ) ) ;
#121 = TOROIDAL_SURFACE ( 'NONE', #185, 1.076239569296599400, 0.5999999999999999800 ) ;
#122 = ORIENTED_EDGE ( 'NONE', *, *, #39, .F. ) ;
#123 = EDGE_CURVE ( 'NONE', #52, #116, #366, .T. ) ;
#124 = DIRECTION ( 'NONE',  ( -0.0000000000000000000, -1.000000000000000000, -0.0000000000000000000 ) ) ;
#125 = UNCERTAINTY_MEASURE_WITH_UNIT (LENGTH_MEASURE( 1.000000000000000100E-005 ), #94, 'distance_accuracy_value', 'NONE');
#126 = VECTOR ( 'NONE', #263, 999.9999999999998900 ) ;
#127 = FILL_AREA_STYLE ('',( #157 ) ) ;
#128 = VERTEX_POINT ( 'NONE', #1 ) ;
#129 = STYLED_ITEM ( 'NONE', ( #240 ), #132 ) ;
#130 = SURFACE_SIDE_STYLE ('',( #154 ) ) ;
#131 = CARTESIAN_POINT ( 'NONE',  ( 0.0000000000000000000, 0.5000000000000048800, 0.0000000000000000000 ) ) ;
#132 = MANIFOLD_SOLID_BREP ( 'Verrundung1', #97 ) ;
#133 = EDGE_CURVE ( 'NONE', #317, #294, #36, .T. ) ;
#134 = VERTEX_POINT ( 'NONE', #324 ) ;
#135 = FILL_AREA_STYLE ('',( #75 ) ) ;
#136 = CIRCLE ( 'NONE', #247, 1.595854811567261900 ) ;
#137 = PRODUCT_DEFINITION ( 'UNKNOWN', '', #22, #206 ) ;
#138 = ORIENTED_EDGE ( 'NONE', *, *, #372, .T. ) ;
#139 = DIRECTION ( 'NONE',  ( 1.000000000000000000, 0.0000000000000000000, 0.0000000000000000000 ) ) ;
#140 = EDGE_CURVE ( 'NONE', #134, #107, #350, .T. ) ;
#141 = DIRECTION ( 'NONE',  ( -0.0000000000000000000, -1.000000000000000000, -0.0000000000000000000 ) ) ;
#142 =( NAMED_UNIT ( * ) PLANE_ANGLE_UNIT ( ) SI_UNIT ( $, .RADIAN. ) );
#143 = DIRECTION ( 'NONE',  ( -0.0000000000000000000, -1.000000000000000000, -0.0000000000000000000 ) ) ;
#144 = ORIENTED_EDGE ( 'NONE', *, *, #202, .F. ) ;
#145 =( GEOMETRIC_REPRESENTATION_CONTEXT ( 3 ) GLOBAL_UNCERTAINTY_ASSIGNED_CONTEXT ( ( #161 ) ) GLOBAL_UNIT_ASSIGNED_CONTEXT ( ( #242, #275, #309 ) ) REPRESENTATION_CONTEXT ( 'NONE', 'WORKASPACE' ) );
#146 = ORIENTED_EDGE ( 'NONE', *, *, #66, .T. ) ;
#147 = AXIS2_PLACEMENT_3D ( 'NONE', #233, #115, #207 ) ;
#148 = EDGE_LOOP ( 'NONE', ( #297, #30 ) ) ;
#149 = ORIENTED_EDGE ( 'NONE', *, *, #372, .F. ) ;
#150 = DIRECTION ( 'NONE',  ( -0.0000000000000000000, -1.000000000000000000, -0.0000000000000000000 ) ) ;
#151 = ORIENTED_EDGE ( 'NONE', *, *, #140, .F. ) ;
#152 = EDGE_CURVE ( 'NONE', #20, #128, #246, .T. ) ;
#153 = CARTESIAN_POINT ( 'NONE',  ( 0.0000000000000000000, 0.0000000000000000000, 0.0000000000000000000 ) ) ;
#154 = SURFACE_STYLE_FILL_AREA ( #127 ) ;
#155 = CARTESIAN_POINT ( 'NONE',  ( 9.184850993605141000E-017, 0.0000000000000000000, -0.4999999999999987200 ) ) ;
#156 = ORIENTED_EDGE ( 'NONE', *, *, #305, .T. ) ;
#157 = FILL_AREA_STYLE_COLOUR ( '', #199 ) ;
#158 = ADVANCED_FACE ( 'NONE', ( #105 ), #200, .T. ) ;
#159 = CARTESIAN_POINT ( 'NONE',  ( 0.0000000000000000000, 0.5000000000000048800, 0.0000000000000000000 ) ) ;
#160 = PRODUCT_DEFINITION_SHAPE ( 'NONE', 'NONE',  #137 ) ;
#161 = UNCERTAINTY_MEASURE_WITH_UNIT (LENGTH_MEASURE( 1.000000000000000100E-005 ), #242, 'distance_accuracy_value', 'NONE');
#162 = PRESENTATION_LAYER_ASSIGNMENT (  '', '', ( #24 ) ) ;
#163 = AXIS2_PLACEMENT_3D ( 'NONE', #203, #328, #264 ) ;
#164 = CYLINDRICAL_SURFACE ( 'NONE', #5, 1.000000000000000000 ) ;
#165 = FACE_OUTER_BOUND ( 'NONE', #292, .T. ) ;
#166 = ORIENTED_EDGE ( 'NONE', *, *, #66, .F. ) ;
#167 = DIRECTION ( 'NONE',  ( -0.0000000000000000000, -1.000000000000000000, -0.0000000000000000000 ) ) ;
#168 = APPLICATION_CONTEXT ( 'automotive_design' ) ;
#169 = LINE ( 'NONE', #235, #89 ) ;
#170 = DIRECTION ( 'NONE',  ( 0.0000000000000000000, 0.0000000000000000000, -1.000000000000000000 ) ) ;
#171 = MECHANICAL_DESIGN_GEOMETRIC_PRESENTATION_REPRESENTATION (  '', ( #24 ), #145 ) ;
#172 = ORIENTED_EDGE ( 'NONE', *, *, #152, .T. ) ;
#173 = AXIS2_PLACEMENT_3D ( 'NONE', #286, #191, #344 ) ;
#174 = CARTESIAN_POINT ( 'NONE',  ( 0.0000000000000000000, 13.00000000000000200, 0.0000000000000000000 ) ) ;
#175 = LINE ( 'NONE', #186, #183 ) ;
#176 = CARTESIAN_POINT ( 'NONE',  ( 0.0000000000000000000, 0.0000000000000000000, 0.4999999999999987200 ) ) ;
#177 = CARTESIAN_POINT ( 'NONE',  ( 0.0000000000000000000, 0.0000000000000000000, 0.0000000000000000000 ) ) ;
#178 = CIRCLE ( 'NONE', #82, 1.000000000000000000 ) ;
#179 = EDGE_CURVE ( 'NONE', #196, #215, #101, .T. ) ;
#180 = CARTESIAN_POINT ( 'NONE',  ( 0.0000000000000000000, 0.0000000000000000000, 0.0000000000000000000 ) ) ;
#181 = CARTESIAN_POINT ( 'NONE',  ( 0.0000000000000000000, 13.00000000000000200, 0.0000000000000000000 ) ) ;
#182 = APPLICATION_PROTOCOL_DEFINITION ( 'draft international standard', 'automotive_design', 1998, #312 ) ;
#183 = VECTOR ( 'NONE', #281, 1000.000000000000000 ) ;
#184 = VERTEX_POINT ( 'NONE', #176 ) ;
#185 = AXIS2_PLACEMENT_3D ( 'NONE', #57, #355, #27 ) ;
#186 = CARTESIAN_POINT ( 'NONE',  ( 1.224646799147353200E-016, 0.0000000000000000000, 1.000000000000000000 ) ) ;
#187 = ADVANCED_FACE ( 'NONE', ( #84 ), #72, .T. ) ;
#188 = SURFACE_STYLE_USAGE ( .BOTH. , #130 ) ;
#189 = VECTOR ( 'NONE', #79, 1000.000000000000000 ) ;
#190 = ADVANCED_FACE ( 'NONE', ( #165 ), #121, .T. ) ;
#191 = DIRECTION ( 'NONE',  ( -1.000000000000000000, 0.0000000000000000000, 0.0000000000000000000 ) ) ;
#192 =( GEOMETRIC_REPRESENTATION_CONTEXT ( 3 ) GLOBAL_UNCERTAINTY_ASSIGNED_CONTEXT ( ( #254 ) ) GLOBAL_UNIT_ASSIGNED_CONTEXT ( ( #360, #142, #229 ) ) REPRESENTATION_CONTEXT ( 'NONE', 'WORKASPACE' ) );
#193 = DIRECTION ( 'NONE',  ( 0.0000000000000000000, 0.0000000000000000000, -1.000000000000000000 ) ) ;
#194 = VECTOR ( 'NONE', #283, 1000.000000000000000 ) ;
#195 = FACE_BOUND ( 'NONE', #91, .T. ) ;
#196 = VERTEX_POINT ( 'NONE', #295 ) ;
#197 = DIRECTION ( 'NONE',  ( 0.0000000000000000000, 1.000000000000000000, 0.0000000000000000000 ) ) ;
#198 = CARTESIAN_POINT ( 'NONE',  ( 6.123233995736750000E-017, 0.0000000000000000000, -0.4999999999999987200 ) ) ;
#199 = COLOUR_RGB ( '',0.7529411764705882200, 0.7529411764705882200, 0.7529411764705882200 ) ;
#200 = CYLINDRICAL_SURFACE ( 'NONE', #163, 2.000000000000000000 ) ;
#201 = EDGE_CURVE ( 'NONE', #215, #196, #259, .T. ) ;
#202 = EDGE_CURVE ( 'NONE', #20, #107, #17, .T. ) ;
#203 = CARTESIAN_POINT ( 'NONE',  ( 0.0000000000000000000, 0.0000000000000000000, 0.0000000000000000000 ) ) ;
#204 = EDGE_LOOP ( 'NONE', ( #2, #18 ) ) ;
#205 = CARTESIAN_POINT ( 'NONE',  ( 1.000000000000000000, 6.999999999999999100, 0.0000000000000000000 ) ) ;
#206 = PRODUCT_DEFINITION_CONTEXT ( 'detailed design', #168, 'design' ) ;
#207 = DIRECTION ( 'NONE',  ( 0.0000000000000000000, 0.0000000000000000000, 1.000000000000000000 ) ) ;
#208 = AXIS2_PLACEMENT_3D ( 'NONE', #80, #143, #234 ) ;
#209 = DIRECTION ( 'NONE',  ( 0.0000000000000000000, 1.000000000000000000, 0.0000000000000000000 ) ) ;
#210 = CYLINDRICAL_SURFACE ( 'NONE', #29, 2.000000000000000000 ) ;
#211 = ORIENTED_EDGE ( 'NONE', *, *, #25, .F. ) ;
#212 = CARTESIAN_POINT ( 'NONE',  ( 0.0000000000000000000, 0.5000000000000048800, -1.000000000000000000 ) ) ;
#213 = CONICAL_SURFACE ( 'NONE', #289, 0.4999999999999987200, 0.7853981633974447300 ) ;
#214 = DIRECTION ( 'NONE',  ( 0.0000000000000000000, -1.000000000000000000, -0.0000000000000000000 ) ) ;
#215 = VERTEX_POINT ( 'NONE', #90 ) ;
#216 = ORIENTED_EDGE ( 'NONE', *, *, #48, .F. ) ;
#217 = DIRECTION ( 'NONE',  ( 0.0000000000000000000, 0.0000000000000000000, -1.000000000000000000 ) ) ;
#218 = CARTESIAN_POINT ( 'NONE',  ( 0.0000000000000000000, 13.39999999999999900, 0.0000000000000000000 ) ) ;
#219 = FACE_OUTER_BOUND ( 'NONE', #204, .T. ) ;
#220 = FACE_OUTER_BOUND ( 'NONE', #148, .T. ) ;
#221 = ORIENTED_EDGE ( 'NONE', *, *, #268, .T. ) ;
#222 = AXIS2_PLACEMENT_3D ( 'NONE', #51, #28, #231 ) ;
#223 = ORIENTED_EDGE ( 'NONE', *, *, #201, .T. ) ;
#224 = ADVANCED_FACE ( 'NONE', ( #219 ), #118, .T. ) ;
#225 = CARTESIAN_POINT ( 'NONE',  ( 2.449293598294706400E-016, 13.00000000000000200, 2.000000000000000000 ) ) ;
#226 = AXIS2_PLACEMENT_3D ( 'NONE', #35, #304, #34 ) ;
#227 = CARTESIAN_POINT ( 'NONE',  ( 2.449293598294706400E-016, 0.0000000000000000000, 2.000000000000000000 ) ) ;
#228 = ORIENTED_EDGE ( 'NONE', *, *, #232, .F. ) ;
#229 =( NAMED_UNIT ( * ) SI_UNIT ( $, .STERADIAN. ) SOLID_ANGLE_UNIT ( ) );
#230 = VERTEX_POINT ( 'NONE', #78 ) ;
#231 = DIRECTION ( 'NONE',  ( 0.0000000000000000000, 0.0000000000000000000, 1.000000000000000000 ) ) ;
#232 = EDGE_CURVE ( 'NONE', #116, #52, #272, .T. ) ;
#233 = CARTESIAN_POINT ( 'NONE',  ( 0.0000000000000000000, 0.0000000000000000000, 0.0000000000000000000 ) ) ;
#234 = DIRECTION ( 'NONE',  ( 0.0000000000000000000, 0.0000000000000000000, -1.000000000000000000 ) ) ;
#235 = CARTESIAN_POINT ( 'NONE',  ( 0.0000000000000000000, 0.0000000000000000000, -2.000000000000000000 ) ) ;
#236 = ORIENTED_EDGE ( 'NONE', *, *, #318, .F. ) ;
#237 = ORIENTED_EDGE ( 'NONE', *, *, #202, .T. ) ;
#238 = DIRECTION ( 'NONE',  ( 0.0000000000000000000, 0.0000000000000000000, -1.000000000000000000 ) ) ;
#239 = DIRECTION ( 'NONE',  ( 0.0000000000000000000, 0.0000000000000000000, -1.000000000000000000 ) ) ;
#240 = PRESENTATION_STYLE_ASSIGNMENT (( #322 ) ) ;
#241 = ORIENTED_EDGE ( 'NONE', *, *, #369, .F. ) ;
#242 =( LENGTH_UNIT ( ) NAMED_UNIT ( * ) SI_UNIT ( .MILLI., .METRE. ) );
#243 = CARTESIAN_POINT ( 'NONE',  ( 0.0000000000000000000, 0.0000000000000000000, 0.4999999999999987200 ) ) ;
#244 = DIRECTION ( 'NONE',  ( -0.0000000000000000000, -1.000000000000000000, -0.0000000000000000000 ) ) ;
#245 = CIRCLE ( 'NONE', #311, 0.4999999999999987200 ) ;
#246 = CIRCLE ( 'NONE', #222, 1.595854811567261900 ) ;
#247 = AXIS2_PLACEMENT_3D ( 'NONE', #87, #302, #306 ) ;
#248 = ORIENTED_EDGE ( 'NONE', *, *, #318, .T. ) ;
#249 = CIRCLE ( 'NONE', #359, 2.000000000000000000 ) ;
#250 = DIRECTION ( 'NONE',  ( 0.0000000000000000000, 0.0000000000000000000, -1.000000000000000000 ) ) ;
#251 = AXIS2_PLACEMENT_3D ( 'NONE', #110, #81, #358 ) ;
#252 = ADVANCED_FACE ( 'NONE', ( #26 ), #348, .T. ) ;
#253 = EDGE_CURVE ( 'NONE', #128, #134, #50, .T. ) ;
#254 = UNCERTAINTY_MEASURE_WITH_UNIT (LENGTH_MEASURE( 1.000000000000000100E-005 ), #360, 'distance_accuracy_value', 'NONE');
#255 = CARTESIAN_POINT ( 'NONE',  ( 0.0000000000000000000, 13.99999999999999800, 0.0000000000000000000 ) ) ;
#256 = EDGE_LOOP ( 'NONE', ( #64, #293, #156, #146 ) ) ;
#257 = CARTESIAN_POINT ( 'NONE',  ( 0.0000000000000000000, 0.0000000000000000000, 0.0000000000000000000 ) ) ;
#258 = PRODUCT_CONTEXT ( 'NONE', #312, 'mechanical' ) ;
#259 = CIRCLE ( 'NONE', #208, 1.000000000000000000 ) ;
#260 = CARTESIAN_POINT ( 'NONE',  ( 2.201826042592228100E-016, 13.69999999999999900, 1.595854811567261900 ) ) ;
#261 = EDGE_CURVE ( 'NONE', #184, #343, #320, .T. ) ;
#262 = CARTESIAN_POINT ( 'NONE',  ( 0.0000000000000000000, 13.00000000000000200, 0.0000000000000000000 ) ) ;
#263 = DIRECTION ( 'NONE',  ( 6.123233995736782100E-017, -0.8660254037844380400, 0.5000000000000012200 ) ) ;
#264 = DIRECTION ( 'NONE',  ( 0.0000000000000000000, 0.0000000000000000000, -1.000000000000000000 ) ) ;
#265 = LINE ( 'NONE', #271, #63 ) ;
#266 = COLOUR_RGB ( '',0.7529411764705882200, 0.7529411764705882200, 0.7529411764705882200 ) ;
#267 = ORIENTED_EDGE ( 'NONE', *, *, #100, .F. ) ;
#268 = EDGE_CURVE ( 'NONE', #128, #20, #136, .T. ) ;
#269 = DIRECTION ( 'NONE',  ( 0.0000000000000000000, 0.0000000000000000000, 1.000000000000000000 ) ) ;
#270 = AXIS2_PLACEMENT_3D ( 'NONE', #262, #111, #356 ) ;
#271 = CARTESIAN_POINT ( 'NONE',  ( 0.0000000000000000000, 0.0000000000000000000, -1.000000000000000000 ) ) ;
#272 = CIRCLE ( 'NONE', #12, 1.076239569296599400 ) ;
#273 = DIRECTION ( 'NONE',  ( -0.0000000000000000000, -1.000000000000000000, -0.0000000000000000000 ) ) ;
#274 = ORIENTED_EDGE ( 'NONE', *, *, #39, .T. ) ;
#275 =( NAMED_UNIT ( * ) PLANE_ANGLE_UNIT ( ) SI_UNIT ( $, .RADIAN. ) );
#276 = AXIS2_PLACEMENT_3D ( 'NONE', #331, #361, #334 ) ;
#277 =( NAMED_UNIT ( * ) PLANE_ANGLE_UNIT ( ) SI_UNIT ( $, .RADIAN. ) );
#278 = LINE ( 'NONE', #243, #194 ) ;
#279 = LINE ( 'NONE', #198, #189 ) ;
#280 = EDGE_LOOP ( 'NONE', ( #351, #274, #149, #241 ) ) ;
#281 = DIRECTION ( 'NONE',  ( -0.0000000000000000000, -1.000000000000000000, -0.0000000000000000000 ) ) ;
#282 = ADVANCED_FACE ( 'NONE', ( #296 ), #213, .T. ) ;
#283 = DIRECTION ( 'NONE',  ( 0.0000000000000000000, 0.7071067811865500200, 0.7071067811865450200 ) ) ;
#284 = FACE_OUTER_BOUND ( 'NONE', #368, .T. ) ;
#285 = ORIENTED_EDGE ( 'NONE', *, *, #140, .T. ) ;
#286 = CARTESIAN_POINT ( 'NONE',  ( 0.0000000000000000000, 13.39999999999999900, 1.076239569296599400 ) ) ;
#287 = AXIS2_PLACEMENT_3D ( 'NONE', #181, #150, #337 ) ;
#288 = ORIENTED_EDGE ( 'NONE', *, *, #253, .F. ) ;
#289 = AXIS2_PLACEMENT_3D ( 'NONE', #177, #88, #13 ) ;
#290 = DIRECTION ( 'NONE',  ( -0.0000000000000000000, -1.000000000000000000, -0.0000000000000000000 ) ) ;
#291 = LINE ( 'NONE', #227, #114 ) ;
#292 = EDGE_LOOP ( 'NONE', ( #301, #248, #342, #19 ) ) ;
#293 = ORIENTED_EDGE ( 'NONE', *, *, #179, .T. ) ;
#294 = VERTEX_POINT ( 'NONE', #61 ) ;
#295 = CARTESIAN_POINT ( 'NONE',  ( 1.224646799147353200E-016, 6.999999999999999100, 1.000000000000000000 ) ) ;
#296 = FACE_OUTER_BOUND ( 'NONE', #280, .T. ) ;
#297 = ORIENTED_EDGE ( 'NONE', *, *, #25, .T. ) ;
#298 = EDGE_CURVE ( 'NONE', #343, #184, #245, .T. ) ;
#299 = DIRECTION ( 'NONE',  ( 0.0000000000000000000, -1.000000000000000000, -0.0000000000000000000 ) ) ;
#300 = ORIENTED_EDGE ( 'NONE', *, *, #353, .T. ) ;
#301 = ORIENTED_EDGE ( 'NONE', *, *, #268, .F. ) ;
#302 = DIRECTION ( 'NONE',  ( -0.0000000000000000000, -1.000000000000000000, -0.0000000000000000000 ) ) ;
#303 = CARTESIAN_POINT ( 'NONE',  ( 0.0000000000000000000, 13.99999999999999800, 1.076239569296599400 ) ) ;
#304 = DIRECTION ( 'NONE',  ( -0.0000000000000000000, -1.000000000000000000, -0.0000000000000000000 ) ) ;
#305 = EDGE_CURVE ( 'NONE', #215, #323, #265, .T. ) ;
#306 = DIRECTION ( 'NONE',  ( 0.0000000000000000000, 0.0000000000000000000, 1.000000000000000000 ) ) ;
#307 = CARTESIAN_POINT ( 'NONE',  ( 0.0000000000000000000, 13.00000000000000200, 0.0000000000000000000 ) ) ;
#308 = EDGE_LOOP ( 'NONE', ( #223, #49, #138, #117 ) ) ;
#309 =( NAMED_UNIT ( * ) SI_UNIT ( $, .STERADIAN. ) SOLID_ANGLE_UNIT ( ) );
#310 = AXIS2_PLACEMENT_3D ( 'NONE', #67, #325, #139 ) ;
#311 = AXIS2_PLACEMENT_3D ( 'NONE', #180, #124, #239 ) ;
#312 = APPLICATION_CONTEXT ( 'automotive_design' ) ;
#313 = ORIENTED_EDGE ( 'NONE', *, *, #298, .T. ) ;
#314 = CARTESIAN_POINT ( 'NONE',  ( 0.0000000000000000000, 0.0000000000000000000, 0.0000000000000000000 ) ) ;
#315 = FACE_OUTER_BOUND ( 'NONE', #85, .T. ) ;
#316 =( GEOMETRIC_REPRESENTATION_CONTEXT ( 3 ) GLOBAL_UNCERTAINTY_ASSIGNED_CONTEXT ( ( #125 ) ) GLOBAL_UNIT_ASSIGNED_CONTEXT ( ( #94, #277, #93 ) ) REPRESENTATION_CONTEXT ( 'NONE', 'WORKASPACE' ) );
#317 = VERTEX_POINT ( 'NONE', #14 ) ;
#318 = EDGE_CURVE ( 'NONE', #128, #116, #47, .T. ) ;
#319 = APPLICATION_PROTOCOL_DEFINITION ( 'draft international standard', 'automotive_design', 1998, #168 ) ;
#320 = CIRCLE ( 'NONE', #226, 0.4999999999999987200 ) ;
#321 = ORIENTED_EDGE ( 'NONE', *, *, #369, .T. ) ;
#322 = SURFACE_STYLE_USAGE ( .BOTH. , #109 ) ;
#323 = VERTEX_POINT ( 'NONE', #212 ) ;
#324 = CARTESIAN_POINT ( 'NONE',  ( 0.0000000000000000000, 13.00000000000000200, -2.000000000000000000 ) ) ;
#325 = DIRECTION ( 'NONE',  ( 0.0000000000000000000, 0.0000000000000000000, 1.000000000000000000 ) ) ;
#326 = CARTESIAN_POINT ( 'NONE',  ( 0.0000000000000000000, 7.000000000000000000, 0.0000000000000000000 ) ) ;
#327 = SHAPE_DEFINITION_REPRESENTATION ( #160, #62 ) ;
#328 = DIRECTION ( 'NONE',  ( -0.0000000000000000000, -1.000000000000000000, -0.0000000000000000000 ) ) ;
#329 = DIRECTION ( 'NONE',  ( 0.0000000000000000000, 0.0000000000000000000, -1.000000000000000000 ) ) ;
#330 = CIRCLE ( 'NONE', #173, 0.6000000000000000900 ) ;
#331 = CARTESIAN_POINT ( 'NONE',  ( 1.422649730810372900, 13.99999999999999800, 0.0000000000000000000 ) ) ;
#332 = ORIENTED_EDGE ( 'NONE', *, *, #261, .F. ) ;
#333 = AXIS2_PLACEMENT_3D ( 'NONE', #174, #112, #357 ) ;
#334 = DIRECTION ( 'NONE',  ( 0.0000000000000000000, -0.0000000000000000000, 1.000000000000000000 ) ) ;
#335 = AXIS2_PLACEMENT_3D ( 'NONE', #205, #299, #238 ) ;
#336 = ORIENTED_EDGE ( 'NONE', *, *, #253, .T. ) ;
#337 = DIRECTION ( 'NONE',  ( 0.0000000000000000000, 0.0000000000000000000, -1.000000000000000000 ) ) ;
#338 = PLANE ( 'NONE',  #349 ) ;
#339 = EDGE_CURVE ( 'NONE', #196, #230, #175, .T. ) ;
#340 = FACE_OUTER_BOUND ( 'NONE', #256, .T. ) ;
#341 = DIRECTION ( 'NONE',  ( 0.0000000000000000000, 0.0000000000000000000, -1.000000000000000000 ) ) ;
#342 = ORIENTED_EDGE ( 'NONE', *, *, #123, .F. ) ;
#343 = VERTEX_POINT ( 'NONE', #155 ) ;
#344 = DIRECTION ( 'NONE',  ( 0.0000000000000000000, 0.0000000000000000000, 1.000000000000000000 ) ) ;
#345 = ADVANCED_FACE ( 'NONE', ( #95 ), #164, .T. ) ;
#346 = ORIENTED_EDGE ( 'NONE', *, *, #48, .T. ) ;
#347 = AXIS2_PLACEMENT_3D ( 'NONE', #364, #40, #68 ) ;
#348 = CONICAL_SURFACE ( 'NONE', #287, 2.000000000000000000, 0.5235987755983002600 ) ;
#349 = AXIS2_PLACEMENT_3D ( 'NONE', #15, #214, #250 ) ;
#350 = CIRCLE ( 'NONE', #333, 2.000000000000000000 ) ;
#351 = ORIENTED_EDGE ( 'NONE', *, *, #298, .F. ) ;
#352 = AXIS2_PLACEMENT_3D ( 'NONE', #307, #16, #217 ) ;
#353 = EDGE_CURVE ( 'NONE', #107, #134, #55, .T. ) ;
#354 = SURFACE_STYLE_FILL_AREA ( #135 ) ;
#355 = DIRECTION ( 'NONE',  ( 0.0000000000000000000, 1.000000000000000000, 0.0000000000000000000 ) ) ;
#356 = DIRECTION ( 'NONE',  ( 0.0000000000000000000, 0.0000000000000000000, -1.000000000000000000 ) ) ;
#357 = DIRECTION ( 'NONE',  ( 0.0000000000000000000, 0.0000000000000000000, -1.000000000000000000 ) ) ;
#358 = DIRECTION ( 'NONE',  ( 0.0000000000000000000, 0.0000000000000000000, -1.000000000000000000 ) ) ;
#359 = AXIS2_PLACEMENT_3D ( 'NONE', #326, #141, #170 ) ;
#360 =( LENGTH_UNIT ( ) NAMED_UNIT ( * ) SI_UNIT ( .MILLI., .METRE. ) );
#361 = DIRECTION ( 'NONE',  ( 0.0000000000000000000, 1.000000000000000000, 0.0000000000000000000 ) ) ;
#362 = CIRCLE ( 'NONE', #119, 1.000000000000000000 ) ;
#363 = EDGE_LOOP ( 'NONE', ( #221, #237, #151, #288 ) ) ;
#364 = CARTESIAN_POINT ( 'NONE',  ( 1.318013343654806400E-016, 13.39999999999999900, -1.076239569296599400 ) ) ;
#365 = ADVANCED_FACE ( 'NONE', ( #23 ), #83, .T. ) ;
#366 = CIRCLE ( 'NONE', #54, 1.076239569296599400 ) ;
#367 = DIRECTION ( 'NONE',  ( 0.0000000000000000000, 0.0000000000000000000, 1.000000000000000000 ) ) ;
#368 = EDGE_LOOP ( 'NONE', ( #267, #300, #346, #56 ) ) ;
#369 = EDGE_CURVE ( 'NONE', #184, #230, #278, .T. ) ;
#370 = VECTOR ( 'NONE', #32, 999.9999999999998900 ) ;
#371 = ADVANCED_FACE ( 'NONE', ( #315 ), #338, .T. ) ;
#372 = EDGE_CURVE ( 'NONE', #230, #323, #362, .T. ) ;
ENDSEC;
END-ISO-10303-21;
