ISO-10303-21;
HEADER;
FILE_DESCRIPTION (( 'STEP AP214' ),
    '1' );
FILE_NAME ('INGUN_41369.STEP',
    '2025-05-12T14:41:04',
    ( '' ),
    ( '' ),
    'SwSTEP 2.0',
    'SolidWorks 2023',
    '' );
FILE_SCHEMA (( 'AUTOMOTIVE_DESIGN' ));
ENDSEC;

DATA;
#1 = ADVANCED_FACE ( 'NONE', ( #143 ), #294, .F. ) ;
#2 = CARTESIAN_POINT ( 'NONE',  ( 3.551475717527331228E-16, 32.79999999999999716, 2.800000000000010481 ) ) ;
#3 = AXIS2_PLACEMENT_3D ( 'NONE', #158, #52, #232 ) ;
#4 = ORIENTED_EDGE ( 'NONE', *, *, #277, .F. ) ;
#5 = CARTESIAN_POINT ( 'NONE',  ( 0.000000000000000000, 32.79999999999999716, -2.800000000000010481 ) ) ;
#6 = ADVANCED_FACE ( 'NONE', ( #70 ), #274, .T. ) ;
#7 = VERTEX_POINT ( 'NONE', #145 ) ;
#8 = DIRECTION ( 'NONE',  ( 0.000000000000000000, 1.000000000000000000, 0.000000000000000000 ) ) ;
#9 = EDGE_CURVE ( 'NONE', #326, #314, #156, .T. ) ;
#10 = FACE_OUTER_BOUND ( 'NONE', #257, .T. ) ;
#11 = AXIS2_PLACEMENT_3D ( 'NONE', #19, #95, #165 ) ;
#12 = EDGE_LOOP ( 'NONE', ( #359, #61, #212, #132 ) ) ;
#13 = CIRCLE ( 'NONE', #271, 2.799999999999997158 ) ;
#14 = CARTESIAN_POINT ( 'NONE',  ( 0.000000000000000000, 32.79999999999999716, 0.000000000000000000 ) ) ;
#15 = FILL_AREA_STYLE ('',( #262 ) ) ;
#16 = CARTESIAN_POINT ( 'NONE',  ( 0.000000000000000000, -32.59999999999998721, 0.000000000000000000 ) ) ;
#17 =( NAMED_UNIT ( * ) SI_UNIT ( $, .STERADIAN. ) SOLID_ANGLE_UNIT ( ) );
#18 = DIRECTION ( 'NONE',  ( -0.000000000000000000, 1.000000000000000000, -0.000000000000000000 ) ) ;
#19 = CARTESIAN_POINT ( 'NONE',  ( 0.000000000000000000, 32.59999999999999432, 0.000000000000000000 ) ) ;
#20 = ORIENTED_EDGE ( 'NONE', *, *, #80, .T. ) ;
#21 = DIRECTION ( 'NONE',  ( 0.000000000000000000, 0.000000000000000000, -1.000000000000000000 ) ) ;
#22 =( GEOMETRIC_REPRESENTATION_CONTEXT ( 3 ) GLOBAL_UNCERTAINTY_ASSIGNED_CONTEXT ( ( #289 ) ) GLOBAL_UNIT_ASSIGNED_CONTEXT ( ( #186, #128, #90 ) ) REPRESENTATION_CONTEXT ( 'NONE', 'WORKASPACE' ) );
#23 = ORIENTED_EDGE ( 'NONE', *, *, #47, .F. ) ;
#24 = ADVANCED_FACE ( 'NONE', ( #10 ), #224, .T. ) ;
#25 = VERTEX_POINT ( 'NONE', #66 ) ;
#26 = CLOSED_SHELL ( 'NONE', ( #320, #72, #24, #338, #154, #187, #273, #1, #291, #6, #332, #100 ) ) ;
#27 =( GEOMETRIC_REPRESENTATION_CONTEXT ( 3 ) GLOBAL_UNCERTAINTY_ASSIGNED_CONTEXT ( ( #229 ) ) GLOBAL_UNIT_ASSIGNED_CONTEXT ( ( #38, #127, #261 ) ) REPRESENTATION_CONTEXT ( 'NONE', 'WORKASPACE' ) );
#28 = PRODUCT_DEFINITION_SHAPE ( 'NONE', 'NONE',  #59 ) ;
#29 = ORIENTED_EDGE ( 'NONE', *, *, #216, .F. ) ;
#30 = CIRCLE ( 'NONE', #231, 2.800000000000010481 ) ;
#31 = CARTESIAN_POINT ( 'NONE',  ( 3.673940397442060361E-16, 32.79999999999999716, 3.000000000000000444 ) ) ;
#32 = ORIENTED_EDGE ( 'NONE', *, *, #226, .T. ) ;
#33 = DIRECTION ( 'NONE',  ( 0.000000000000000000, 1.000000000000000000, 0.000000000000000000 ) ) ;
#34 = DIRECTION ( 'NONE',  ( 0.000000000000000000, 0.000000000000000000, 1.000000000000000000 ) ) ;
#35 = DIRECTION ( 'NONE',  ( 0.000000000000000000, 0.000000000000000000, 1.000000000000000000 ) ) ;
#36 = CYLINDRICAL_SURFACE ( 'NONE', #330, 1.649999999999996581 ) ;
#37 = CARTESIAN_POINT ( 'NONE',  ( 0.000000000000000000, 32.79999999999999716, 0.000000000000000000 ) ) ;
#38 =( LENGTH_UNIT ( ) NAMED_UNIT ( * ) SI_UNIT ( .MILLI., .METRE. ) );
#39 = AXIS2_PLACEMENT_3D ( 'NONE', #53, #182, #97 ) ;
#40 = AXIS2_PLACEMENT_3D ( 'NONE', #322, #96, #207 ) ;
#41 = ORIENTED_EDGE ( 'NONE', *, *, #80, .F. ) ;
#42 = CARTESIAN_POINT ( 'NONE',  ( 0.000000000000000000, -32.79999999999999716, 0.000000000000000000 ) ) ;
#43 = CIRCLE ( 'NONE', #54, 3.000000000000000444 ) ;
#44 = DIRECTION ( 'NONE',  ( -0.000000000000000000, 1.000000000000000000, -0.000000000000000000 ) ) ;
#45 = CARTESIAN_POINT ( 'NONE',  ( 0.000000000000000000, 32.79999999999999716, 0.000000000000000000 ) ) ;
#46 = CIRCLE ( 'NONE', #11, 3.000000000000000444 ) ;
#47 = EDGE_CURVE ( 'NONE', #133, #7, #117, .T. ) ;
#48 = CARTESIAN_POINT ( 'NONE',  ( 0.000000000000000000, -32.59999999999998721, 3.000000000000000444 ) ) ;
#49 = VECTOR ( 'NONE', #259, 1000.000000000000000 ) ;
#50 = CARTESIAN_POINT ( 'NONE',  ( 0.000000000000000000, -32.59999999999998721, 0.000000000000000000 ) ) ;
#51 = ORIENTED_EDGE ( 'NONE', *, *, #147, .T. ) ;
#52 = DIRECTION ( 'NONE',  ( -0.000000000000000000, 1.000000000000000000, -0.000000000000000000 ) ) ;
#53 = CARTESIAN_POINT ( 'NONE',  ( 0.000000000000000000, 19.29999999999999716, 0.000000000000000000 ) ) ;
#54 = AXIS2_PLACEMENT_3D ( 'NONE', #50, #302, #101 ) ;
#55 = ORIENTED_EDGE ( 'NONE', *, *, #9, .T. ) ;
#56 = DIRECTION ( 'NONE',  ( 0.000000000000000000, 0.000000000000000000, 1.000000000000000000 ) ) ;
#57 = STYLED_ITEM ( 'NONE', ( #67 ), #320 ) ;
#58 =( LENGTH_UNIT ( ) NAMED_UNIT ( * ) SI_UNIT ( .MILLI., .METRE. ) );
#59 = PRODUCT_DEFINITION ( 'UNKNOWN', '', #141, #137 ) ;
#60 = CARTESIAN_POINT ( 'NONE',  ( 0.000000000000000000, 19.29999999999999716, 0.000000000000000000 ) ) ;
#61 = ORIENTED_EDGE ( 'NONE', *, *, #306, .T. ) ;
#62 = CARTESIAN_POINT ( 'NONE',  ( 0.000000000000000000, 32.79999999999999716, 0.000000000000000000 ) ) ;
#63 = EDGE_LOOP ( 'NONE', ( #20, #244 ) ) ;
#64 = CARTESIAN_POINT ( 'NONE',  ( 3.673940397442060361E-16, -32.59999999999998721, -3.000000000000000444 ) ) ;
#65 = EDGE_LOOP ( 'NONE', ( #303, #319, #300 ) ) ;
#66 = CARTESIAN_POINT ( 'NONE',  ( 3.673940397442060361E-16, 32.59999999999999432, 3.000000000000000444 ) ) ;
#67 = PRESENTATION_STYLE_ASSIGNMENT (( #317 ) ) ;
#68 = EDGE_LOOP ( 'NONE', ( #250, #41, #32, #305 ) ) ;
#69 = VECTOR ( 'NONE', #339, 1000.000000000000114 ) ;
#70 = FACE_OUTER_BOUND ( 'NONE', #68, .T. ) ;
#71 = PRESENTATION_STYLE_ASSIGNMENT (( #234 ) ) ;
#72 = ADVANCED_FACE ( 'NONE', ( #283 ), #190, .F. ) ;
#73 = LINE ( 'NONE', #350, #290 ) ;
#74 = CARTESIAN_POINT ( 'NONE',  ( -3.549374228860367710E-15, 18.30857997860452357, 0.000000000000000000 ) ) ;
#75 = ORIENTED_EDGE ( 'NONE', *, *, #277, .T. ) ;
#76 =( LENGTH_UNIT ( ) NAMED_UNIT ( * ) SI_UNIT ( .MILLI., .METRE. ) );
#77 = ORIENTED_EDGE ( 'NONE', *, *, #279, .T. ) ;
#78 = SURFACE_STYLE_FILL_AREA ( #129 ) ;
#79 = ORIENTED_EDGE ( 'NONE', *, *, #107, .F. ) ;
#80 = EDGE_CURVE ( 'NONE', #243, #268, #105, .T. ) ;
#81 = ORIENTED_EDGE ( 'NONE', *, *, #279, .F. ) ;
#82 = STYLED_ITEM ( 'NONE', ( #71 ), #213 ) ;
#83 = FACE_OUTER_BOUND ( 'NONE', #254, .T. ) ;
#84 = PRESENTATION_STYLE_ASSIGNMENT (( #335 ) ) ;
#85 = CARTESIAN_POINT ( 'NONE',  ( 0.000000000000000000, -32.59999999999998721, 0.000000000000000000 ) ) ;
#86 = DIRECTION ( 'NONE',  ( 0.000000000000000000, 1.000000000000000000, 0.000000000000000000 ) ) ;
#87 = DIRECTION ( 'NONE',  ( -0.000000000000000000, 1.000000000000000000, -0.000000000000000000 ) ) ;
#88 = DIRECTION ( 'NONE',  ( 0.000000000000000000, -0.000000000000000000, 1.000000000000000000 ) ) ;
#89 = DIRECTION ( 'NONE',  ( 0.000000000000000000, 0.000000000000000000, 1.000000000000000000 ) ) ;
#90 =( NAMED_UNIT ( * ) SI_UNIT ( $, .STERADIAN. ) SOLID_ANGLE_UNIT ( ) );
#91 = EDGE_CURVE ( 'NONE', #268, #243, #30, .T. ) ;
#92 = DIRECTION ( 'NONE',  ( 0.000000000000000000, 0.000000000000000000, -1.000000000000000000 ) ) ;
#93 = APPLICATION_PROTOCOL_DEFINITION ( 'draft international standard', 'automotive_design', 1998, #357 ) ;
#94 = CONICAL_SURFACE ( 'NONE', #241, 3.000000000000000444, 0.7853981633974428389 ) ;
#95 = DIRECTION ( 'NONE',  ( 0.000000000000000000, -1.000000000000000000, 0.000000000000000000 ) ) ;
#96 = DIRECTION ( 'NONE',  ( 0.000000000000000000, 0.000000000000000000, 1.000000000000000000 ) ) ;
#97 = DIRECTION ( 'NONE',  ( 0.000000000000000000, 0.000000000000000000, 1.000000000000000000 ) ) ;
#98 = DIRECTION ( 'NONE',  ( 0.000000000000000000, 0.5150380749100560429, 0.8571673007021112234 ) ) ;
#99 = DIRECTION ( 'NONE',  ( -0.000000000000000000, 1.000000000000000000, -0.000000000000000000 ) ) ;
#100 = ADVANCED_FACE ( 'NONE', ( #204 ), #345, .F. ) ;
#101 = DIRECTION ( 'NONE',  ( 0.000000000000000000, 0.000000000000000000, 1.000000000000000000 ) ) ;
#102 = EDGE_LOOP ( 'NONE', ( #223, #164, #79, #176 ) ) ;
#103 = DIRECTION ( 'NONE',  ( 0.000000000000000000, 0.000000000000000000, -1.000000000000000000 ) ) ;
#104 = DIRECTION ( 'NONE',  ( 0.000000000000000000, 0.000000000000000000, 1.000000000000000000 ) ) ;
#105 = CIRCLE ( 'NONE', #354, 2.800000000000010481 ) ;
#106 = VERTEX_POINT ( 'NONE', #266 ) ;
#107 = EDGE_CURVE ( 'NONE', #314, #326, #43, .T. ) ;
#108 = MECHANICAL_DESIGN_GEOMETRIC_PRESENTATION_REPRESENTATION (  '', ( #57 ), #27 ) ;
#109 = VECTOR ( 'NONE', #272, 1000.000000000000000 ) ;
#110 = EDGE_CURVE ( 'NONE', #189, #106, #206, .T. ) ;
#111 = ORIENTED_EDGE ( 'NONE', *, *, #122, .T. ) ;
#112 = CONICAL_SURFACE ( 'NONE', #3, 1.649999999999997025, 1.029744258676652313 ) ;
#113 = CARTESIAN_POINT ( 'NONE',  ( 0.000000000000000000, -32.79999999999999716, 0.000000000000000000 ) ) ;
#114 = ORIENTED_EDGE ( 'NONE', *, *, #252, .T. ) ;
#115 = PLANE ( 'NONE',  #258 ) ;
#116 = ORIENTED_EDGE ( 'NONE', *, *, #203, .T. ) ;
#117 = CIRCLE ( 'NONE', #323, 2.799999999999997158 ) ;
#118 = ORIENTED_EDGE ( 'NONE', *, *, #47, .T. ) ;
#119 = VECTOR ( 'NONE', #211, 1000.000000000000000 ) ;
#120 = SURFACE_SIDE_STYLE ('',( #251 ) ) ;
#121 = DIRECTION ( 'NONE',  ( 0.000000000000000000, 0.000000000000000000, 1.000000000000000000 ) ) ;
#122 = EDGE_CURVE ( 'NONE', #268, #25, #296, .T. ) ;
#123 = CARTESIAN_POINT ( 'NONE',  ( 0.000000000000000000, -32.59999999999998721, 0.000000000000000000 ) ) ;
#124 = CARTESIAN_POINT ( 'NONE',  ( 0.000000000000000000, 19.29999999999999716, 1.649999999999997025 ) ) ;
#125 = COLOUR_RGB ( '',0.7529411764705882248, 0.7529411764705882248, 0.7529411764705882248 ) ;
#126 = DIRECTION ( 'NONE',  ( -0.000000000000000000, -1.000000000000000000, -0.000000000000000000 ) ) ;
#127 =( NAMED_UNIT ( * ) PLANE_ANGLE_UNIT ( ) SI_UNIT ( $, .RADIAN. ) );
#128 =( NAMED_UNIT ( * ) PLANE_ANGLE_UNIT ( ) SI_UNIT ( $, .RADIAN. ) );
#129 = FILL_AREA_STYLE ('',( #160 ) ) ;
#130 = VECTOR ( 'NONE', #126, 1000.000000000000000 ) ;
#131 = CARTESIAN_POINT ( 'NONE',  ( 0.000000000000000000, 32.79999999999999716, -3.000000000000000444 ) ) ;
#132 = ORIENTED_EDGE ( 'NONE', *, *, #178, .F. ) ;
#133 = VERTEX_POINT ( 'NONE', #163 ) ;
#134 = AXIS2_PLACEMENT_3D ( 'NONE', #123, #286, #35 ) ;
#135 = ADVANCED_BREP_SHAPE_REPRESENTATION ( 'INGUN_41369', ( #213, #40 ), #22 ) ;
#136 = CIRCLE ( 'NONE', #179, 3.000000000000000444 ) ;
#137 = PRODUCT_DEFINITION_CONTEXT ( 'detailed design', #171, 'design' ) ;
#138 = EDGE_CURVE ( 'NONE', #189, #329, #73, .T. ) ;
#139 = FACE_OUTER_BOUND ( 'NONE', #185, .T. ) ;
#140 = ORIENTED_EDGE ( 'NONE', *, *, #299, .T. ) ;
#141 = PRODUCT_DEFINITION_FORMATION_WITH_SPECIFIED_SOURCE ( 'ANY', '', #246, .NOT_KNOWN. ) ;
#142 = DIRECTION ( 'NONE',  ( 8.659560562354886020E-17, 0.7071067811865513475, -0.7071067811865436870 ) ) ;
#143 = FACE_OUTER_BOUND ( 'NONE', #192, .T. ) ;
#144 = LINE ( 'NONE', #169, #200 ) ;
#145 = CARTESIAN_POINT ( 'NONE',  ( 3.551475717527322846E-16, -32.79999999999999716, -2.799999999999997158 ) ) ;
#146 = FILL_AREA_STYLE_COLOUR ( '', #278 ) ;
#147 = EDGE_CURVE ( 'NONE', #25, #340, #46, .T. ) ;
#148 = DIRECTION ( 'NONE',  ( 0.000000000000000000, 0.000000000000000000, -1.000000000000000000 ) ) ;
#149 = CIRCLE ( 'NONE', #39, 1.649999999999997025 ) ;
#150 = DIRECTION ( 'NONE',  ( 0.000000000000000000, -0.000000000000000000, 1.000000000000000000 ) ) ;
#151 = AXIS2_PLACEMENT_3D ( 'NONE', #313, #334, #197 ) ;
#152 = AXIS2_PLACEMENT_3D ( 'NONE', #325, #264, #103 ) ;
#153 = ORIENTED_EDGE ( 'NONE', *, *, #275, .F. ) ;
#154 = ADVANCED_FACE ( 'NONE', ( #270 ), #236, .T. ) ;
#155 = DIRECTION ( 'NONE',  ( 0.000000000000000000, 0.000000000000000000, 1.000000000000000000 ) ) ;
#156 = CIRCLE ( 'NONE', #134, 3.000000000000000444 ) ;
#157 = CARTESIAN_POINT ( 'NONE',  ( 3.429011037612602095E-16, 32.79999999999999716, 2.800000000000010481 ) ) ;
#158 = CARTESIAN_POINT ( 'NONE',  ( 0.000000000000000000, 19.29999999999999716, 0.000000000000000000 ) ) ;
#159 = CIRCLE ( 'NONE', #356, 1.649999999999996358 ) ;
#160 = FILL_AREA_STYLE_COLOUR ( '', #239 ) ;
#161 = EDGE_LOOP ( 'NONE', ( #4, #81 ) ) ;
#162 = AXIS2_PLACEMENT_3D ( 'NONE', #316, #230, #155 ) ;
#163 = CARTESIAN_POINT ( 'NONE',  ( 0.000000000000000000, -32.79999999999999716, 2.799999999999997158 ) ) ;
#164 = ORIENTED_EDGE ( 'NONE', *, *, #248, .T. ) ;
#165 = DIRECTION ( 'NONE',  ( 0.000000000000000000, 0.000000000000000000, 1.000000000000000000 ) ) ;
#166 = EDGE_LOOP ( 'NONE', ( #177, #153, #170, #75 ) ) ;
#167 = DIRECTION ( 'NONE',  ( 0.000000000000000000, -1.000000000000000000, 0.000000000000000000 ) ) ;
#168 =( NAMED_UNIT ( * ) PLANE_ANGLE_UNIT ( ) SI_UNIT ( $, .RADIAN. ) );
#169 = CARTESIAN_POINT ( 'NONE',  ( 2.020667218593128564E-16, 32.79999999999999716, -1.649999999999996581 ) ) ;
#170 = ORIENTED_EDGE ( 'NONE', *, *, #199, .T. ) ;
#171 = APPLICATION_CONTEXT ( 'automotive_design' ) ;
#172 = CARTESIAN_POINT ( 'NONE',  ( 0.000000000000000000, 32.79999999999999716, 1.649999999999996358 ) ) ;
#173 = EDGE_CURVE ( 'NONE', #106, #329, #149, .T. ) ;
#174 = DIRECTION ( 'NONE',  ( 0.000000000000000000, -1.000000000000000000, 0.000000000000000000 ) ) ;
#175 = DIRECTION ( 'NONE',  ( 0.000000000000000000, 0.000000000000000000, 1.000000000000000000 ) ) ;
#176 = ORIENTED_EDGE ( 'NONE', *, *, #203, .F. ) ;
#177 = ORIENTED_EDGE ( 'NONE', *, *, #299, .F. ) ;
#178 = EDGE_CURVE ( 'NONE', #340, #326, #321, .T. ) ;
#179 = AXIS2_PLACEMENT_3D ( 'NONE', #327, #167, #104 ) ;
#180 = CARTESIAN_POINT ( 'NONE',  ( 0.000000000000000000, 32.79999999999999716, 0.000000000000000000 ) ) ;
#181 = DIRECTION ( 'NONE',  ( 0.000000000000000000, 0.000000000000000000, 1.000000000000000000 ) ) ;
#182 = DIRECTION ( 'NONE',  ( -0.000000000000000000, 1.000000000000000000, -0.000000000000000000 ) ) ;
#183 =( GEOMETRIC_REPRESENTATION_CONTEXT ( 3 ) GLOBAL_UNCERTAINTY_ASSIGNED_CONTEXT ( ( #309 ) ) GLOBAL_UNIT_ASSIGNED_CONTEXT ( ( #58, #168, #307 ) ) REPRESENTATION_CONTEXT ( 'NONE', 'WORKASPACE' ) );
#184 = CARTESIAN_POINT ( 'NONE',  ( 2.020667218593128318E-16, 32.79999999999999716, -1.649999999999996358 ) ) ;
#185 = EDGE_LOOP ( 'NONE', ( #255, #140, #77, #281 ) ) ;
#186 =( LENGTH_UNIT ( ) NAMED_UNIT ( * ) SI_UNIT ( .MILLI., .METRE. ) );
#187 = ADVANCED_FACE ( 'NONE', ( #353 ), #347, .T. ) ;
#188 =( NAMED_UNIT ( * ) PLANE_ANGLE_UNIT ( ) SI_UNIT ( $, .RADIAN. ) );
#189 = VERTEX_POINT ( 'NONE', #74 ) ;
#190 = CONICAL_SURFACE ( 'NONE', #162, 1.649999999999997025, 1.029744258676652313 ) ;
#191 = SURFACE_SIDE_STYLE ('',( #78 ) ) ;
#192 = EDGE_LOOP ( 'NONE', ( #118, #114 ) ) ;
#193 = VECTOR ( 'NONE', #44, 1000.000000000000000 ) ;
#194 = ORIENTED_EDGE ( 'NONE', *, *, #178, .T. ) ;
#195 = CARTESIAN_POINT ( 'NONE',  ( 0.000000000000000000, 32.79999999999999716, -2.800000000000010481 ) ) ;
#196 = SURFACE_SIDE_STYLE ('',( #221 ) ) ;
#197 = DIRECTION ( 'NONE',  ( 0.000000000000000000, 0.000000000000000000, 1.000000000000000000 ) ) ;
#198 = DIRECTION ( 'NONE',  ( 0.000000000000000000, 1.000000000000000000, 0.000000000000000000 ) ) ;
#199 = EDGE_CURVE ( 'NONE', #329, #292, #242, .T. ) ;
#200 = VECTOR ( 'NONE', #280, 1000.000000000000000 ) ;
#201 = ORIENTED_EDGE ( 'NONE', *, *, #91, .F. ) ;
#202 = DIRECTION ( 'NONE',  ( 0.000000000000000000, 0.000000000000000000, 1.000000000000000000 ) ) ;
#203 = EDGE_CURVE ( 'NONE', #133, #314, #297, .T. ) ;
#204 = FACE_OUTER_BOUND ( 'NONE', #166, .T. ) ;
#205 = VERTEX_POINT ( 'NONE', #184 ) ;
#206 = LINE ( 'NONE', #237, #109 ) ;
#207 = DIRECTION ( 'NONE',  ( 1.000000000000000000, 0.000000000000000000, 0.000000000000000000 ) ) ;
#208 = CARTESIAN_POINT ( 'NONE',  ( 0.000000000000000000, 32.79999999999999716, 1.649999999999996581 ) ) ;
#209 = DIRECTION ( 'NONE',  ( -0.000000000000000000, -1.000000000000000000, -0.000000000000000000 ) ) ;
#210 = EDGE_LOOP ( 'NONE', ( #352, #218, #240 ) ) ;
#211 = DIRECTION ( 'NONE',  ( 0.000000000000000000, 0.7071067811865513475, 0.7071067811865436870 ) ) ;
#212 = ORIENTED_EDGE ( 'NONE', *, *, #107, .T. ) ;
#213 = MANIFOLD_SOLID_BREP ( 'M4 Gewindebohrung1', #26 ) ;
#214 = VECTOR ( 'NONE', #142, 1000.000000000000000 ) ;
#215 = PRESENTATION_LAYER_ASSIGNMENT (  '', '', ( #245 ) ) ;
#216 = EDGE_CURVE ( 'NONE', #340, #25, #136, .T. ) ;
#217 = MECHANICAL_DESIGN_GEOMETRIC_PRESENTATION_REPRESENTATION (  '', ( #82 ), #183 ) ;
#218 = ORIENTED_EDGE ( 'NONE', *, *, #110, .T. ) ;
#219 = CONICAL_SURFACE ( 'NONE', #351, 3.000000000000000444, 0.7853981633974428389 ) ;
#220 = FACE_OUTER_BOUND ( 'NONE', #63, .T. ) ;
#221 = SURFACE_STYLE_FILL_AREA ( #15 ) ;
#222 = LINE ( 'NONE', #64, #214 ) ;
#223 = ORIENTED_EDGE ( 'NONE', *, *, #252, .F. ) ;
#224 = CONICAL_SURFACE ( 'NONE', #331, 2.800000000000010481, 0.7853981633974266297 ) ;
#225 = DIRECTION ( 'NONE',  ( 0.000000000000000000, 0.000000000000000000, 1.000000000000000000 ) ) ;
#226 = EDGE_CURVE ( 'NONE', #243, #340, #333, .T. ) ;
#227 = ORIENTED_EDGE ( 'NONE', *, *, #306, .F. ) ;
#228 = FACE_OUTER_BOUND ( 'NONE', #65, .T. ) ;
#229 = UNCERTAINTY_MEASURE_WITH_UNIT (LENGTH_MEASURE( 1.000000000000000082E-05 ), #38, 'distance_accuracy_value', 'NONE');
#230 = DIRECTION ( 'NONE',  ( -0.000000000000000000, 1.000000000000000000, -0.000000000000000000 ) ) ;
#231 = AXIS2_PLACEMENT_3D ( 'NONE', #343, #33, #89 ) ;
#232 = DIRECTION ( 'NONE',  ( 0.000000000000000000, 0.000000000000000000, 1.000000000000000000 ) ) ;
#233 = PRODUCT_RELATED_PRODUCT_CATEGORY ( 'part', '', ( #246 ) ) ;
#234 = SURFACE_STYLE_USAGE ( .BOTH. , #191 ) ;
#235 = CARTESIAN_POINT ( 'NONE',  ( 0.000000000000000000, -32.59999999999998721, -3.000000000000000444 ) ) ;
#236 = CYLINDRICAL_SURFACE ( 'NONE', #308, 3.000000000000000444 ) ;
#237 = CARTESIAN_POINT ( 'NONE',  ( 2.020667218593129057E-16, 19.29999999999999716, -1.649999999999997025 ) ) ;
#238 = DIRECTION ( 'NONE',  ( 8.659560562354745504E-17, -0.7071067811865627828, 0.7071067811865321406 ) ) ;
#239 = COLOUR_RGB ( '',0.8980392156862745390, 0.9176470588235293713, 0.9294117647058823817 ) ;
#240 = ORIENTED_EDGE ( 'NONE', *, *, #173, .T. ) ;
#241 = AXIS2_PLACEMENT_3D ( 'NONE', #16, #269, #298 ) ;
#242 = LINE ( 'NONE', #208, #193 ) ;
#243 = VERTEX_POINT ( 'NONE', #5 ) ;
#244 = ORIENTED_EDGE ( 'NONE', *, *, #91, .T. ) ;
#245 = STYLED_ITEM ( 'NONE', ( #84 ), #100 ) ;
#246 = PRODUCT ( 'INGUN_41369', 'INGUN_41369', '', ( #348 ) ) ;
#247 = PRESENTATION_LAYER_ASSIGNMENT (  '', '', ( #82 ) ) ;
#248 = EDGE_CURVE ( 'NONE', #7, #326, #222, .T. ) ;
#249 = VECTOR ( 'NONE', #238, 1000.000000000000114 ) ;
#250 = ORIENTED_EDGE ( 'NONE', *, *, #122, .F. ) ;
#251 = SURFACE_STYLE_FILL_AREA ( #256 ) ;
#252 = EDGE_CURVE ( 'NONE', #7, #133, #13, .T. ) ;
#253 = EDGE_LOOP ( 'NONE', ( #227, #51, #194, #55 ) ) ;
#254 = EDGE_LOOP ( 'NONE', ( #318, #23, #116, #260 ) ) ;
#255 = ORIENTED_EDGE ( 'NONE', *, *, #173, .F. ) ;
#256 = FILL_AREA_STYLE ('',( #146 ) ) ;
#257 = EDGE_LOOP ( 'NONE', ( #201, #111, #29, #355 ) ) ;
#258 = AXIS2_PLACEMENT_3D ( 'NONE', #62, #8, #150 ) ;
#259 = DIRECTION ( 'NONE',  ( -0.000000000000000000, -1.000000000000000000, -0.000000000000000000 ) ) ;
#260 = ORIENTED_EDGE ( 'NONE', *, *, #9, .F. ) ;
#261 =( NAMED_UNIT ( * ) SI_UNIT ( $, .STERADIAN. ) SOLID_ANGLE_UNIT ( ) );
#262 = FILL_AREA_STYLE_COLOUR ( '', #125 ) ;
#263 = AXIS2_PLACEMENT_3D ( 'NONE', #14, #174, #148 ) ;
#264 = DIRECTION ( 'NONE',  ( -0.000000000000000000, -1.000000000000000000, -0.000000000000000000 ) ) ;
#265 = CARTESIAN_POINT ( 'NONE',  ( 0.000000000000000000, 32.79999999999999716, 0.000000000000000000 ) ) ;
#266 = CARTESIAN_POINT ( 'NONE',  ( 2.020667218593129057E-16, 19.29999999999999716, -1.649999999999997025 ) ) ;
#267 =( GEOMETRIC_REPRESENTATION_CONTEXT ( 3 ) GLOBAL_UNCERTAINTY_ASSIGNED_CONTEXT ( ( #276 ) ) GLOBAL_UNIT_ASSIGNED_CONTEXT ( ( #76, #188, #17 ) ) REPRESENTATION_CONTEXT ( 'NONE', 'WORKASPACE' ) );
#268 = VERTEX_POINT ( 'NONE', #2 ) ;
#269 = DIRECTION ( 'NONE',  ( -0.000000000000000000, 1.000000000000000000, -0.000000000000000000 ) ) ;
#270 = FACE_OUTER_BOUND ( 'NONE', #12, .T. ) ;
#271 = AXIS2_PLACEMENT_3D ( 'NONE', #113, #285, #175 ) ;
#272 = DIRECTION ( 'NONE',  ( 1.049727191138617340E-16, 0.5150380749100560429, -0.8571673007021112234 ) ) ;
#273 = ADVANCED_FACE ( 'NONE', ( #310, #220 ), #115, .T. ) ;
#274 = CONICAL_SURFACE ( 'NONE', #263, 2.800000000000010481, 0.7853981633974266297 ) ;
#275 = EDGE_CURVE ( 'NONE', #329, #106, #341, .T. ) ;
#276 = UNCERTAINTY_MEASURE_WITH_UNIT (LENGTH_MEASURE( 1.000000000000000082E-05 ), #76, 'distance_accuracy_value', 'NONE');
#277 = EDGE_CURVE ( 'NONE', #292, #205, #159, .T. ) ;
#278 = COLOUR_RGB ( '',0.7529411764705882248, 0.7529411764705882248, 0.7529411764705882248 ) ;
#279 = EDGE_CURVE ( 'NONE', #205, #292, #284, .T. ) ;
#280 = DIRECTION ( 'NONE',  ( -0.000000000000000000, 1.000000000000000000, -0.000000000000000000 ) ) ;
#281 = ORIENTED_EDGE ( 'NONE', *, *, #199, .F. ) ;
#282 = DIRECTION ( 'NONE',  ( 0.000000000000000000, 0.000000000000000000, 1.000000000000000000 ) ) ;
#283 = FACE_OUTER_BOUND ( 'NONE', #210, .T. ) ;
#284 = CIRCLE ( 'NONE', #151, 1.649999999999996358 ) ;
#285 = DIRECTION ( 'NONE',  ( -0.000000000000000000, -1.000000000000000000, -0.000000000000000000 ) ) ;
#286 = DIRECTION ( 'NONE',  ( -0.000000000000000000, 1.000000000000000000, -0.000000000000000000 ) ) ;
#287 = LINE ( 'NONE', #31, #49 ) ;
#288 = DIRECTION ( 'NONE',  ( -0.000000000000000000, -1.000000000000000000, -0.000000000000000000 ) ) ;
#289 = UNCERTAINTY_MEASURE_WITH_UNIT (LENGTH_MEASURE( 1.000000000000000082E-05 ), #186, 'distance_accuracy_value', 'NONE');
#290 = VECTOR ( 'NONE', #98, 1000.000000000000000 ) ;
#291 = ADVANCED_FACE ( 'NONE', ( #83 ), #219, .T. ) ;
#292 = VERTEX_POINT ( 'NONE', #172 ) ;
#293 = PRESENTATION_LAYER_ASSIGNMENT (  '', '', ( #57 ) ) ;
#294 = PLANE ( 'NONE',  #344 ) ;
#295 = SHAPE_DEFINITION_REPRESENTATION ( #28, #135 ) ;
#296 = LINE ( 'NONE', #157, #249 ) ;
#297 = LINE ( 'NONE', #48, #119 ) ;
#298 = DIRECTION ( 'NONE',  ( 0.000000000000000000, 0.000000000000000000, 1.000000000000000000 ) ) ;
#299 = EDGE_CURVE ( 'NONE', #106, #205, #144, .T. ) ;
#300 = ORIENTED_EDGE ( 'NONE', *, *, #275, .T. ) ;
#301 = APPLICATION_PROTOCOL_DEFINITION ( 'draft international standard', 'automotive_design', 1998, #171 ) ;
#302 = DIRECTION ( 'NONE',  ( -0.000000000000000000, 1.000000000000000000, -0.000000000000000000 ) ) ;
#303 = ORIENTED_EDGE ( 'NONE', *, *, #110, .F. ) ;
#304 = AXIS2_PLACEMENT_3D ( 'NONE', #60, #311, #282 ) ;
#305 = ORIENTED_EDGE ( 'NONE', *, *, #147, .F. ) ;
#306 = EDGE_CURVE ( 'NONE', #25, #314, #287, .T. ) ;
#307 =( NAMED_UNIT ( * ) SI_UNIT ( $, .STERADIAN. ) SOLID_ANGLE_UNIT ( ) );
#308 = AXIS2_PLACEMENT_3D ( 'NONE', #349, #209, #21 ) ;
#309 = UNCERTAINTY_MEASURE_WITH_UNIT (LENGTH_MEASURE( 1.000000000000000082E-05 ), #58, 'distance_accuracy_value', 'NONE');
#310 = FACE_BOUND ( 'NONE', #161, .T. ) ;
#311 = DIRECTION ( 'NONE',  ( -0.000000000000000000, 1.000000000000000000, -0.000000000000000000 ) ) ;
#312 = DIRECTION ( 'NONE',  ( 0.000000000000000000, -1.000000000000000000, 0.000000000000000000 ) ) ;
#313 = CARTESIAN_POINT ( 'NONE',  ( 0.000000000000000000, 32.79999999999999716, 0.000000000000000000 ) ) ;
#314 = VERTEX_POINT ( 'NONE', #315 ) ;
#315 = CARTESIAN_POINT ( 'NONE',  ( 3.673940397442060361E-16, -32.59999999999998721, 3.000000000000000444 ) ) ;
#316 = CARTESIAN_POINT ( 'NONE',  ( 0.000000000000000000, 19.29999999999999716, 0.000000000000000000 ) ) ;
#317 = SURFACE_STYLE_USAGE ( .BOTH. , #120 ) ;
#318 = ORIENTED_EDGE ( 'NONE', *, *, #248, .F. ) ;
#319 = ORIENTED_EDGE ( 'NONE', *, *, #138, .T. ) ;
#320 = ADVANCED_FACE ( 'NONE', ( #139 ), #36, .F. ) ;
#321 = LINE ( 'NONE', #131, #130 ) ;
#322 = CARTESIAN_POINT ( 'NONE',  ( 0.000000000000000000, 0.000000000000000000, 0.000000000000000000 ) ) ;
#323 = AXIS2_PLACEMENT_3D ( 'NONE', #42, #288, #225 ) ;
#324 = FACE_OUTER_BOUND ( 'NONE', #102, .T. ) ;
#325 = CARTESIAN_POINT ( 'NONE',  ( 0.000000000000000000, 32.79999999999999716, 0.000000000000000000 ) ) ;
#326 = VERTEX_POINT ( 'NONE', #235 ) ;
#327 = CARTESIAN_POINT ( 'NONE',  ( 0.000000000000000000, 32.59999999999999432, 0.000000000000000000 ) ) ;
#328 = AXIS2_PLACEMENT_3D ( 'NONE', #265, #18, #56 ) ;
#329 = VERTEX_POINT ( 'NONE', #124 ) ;
#330 = AXIS2_PLACEMENT_3D ( 'NONE', #45, #99, #181 ) ;
#331 = AXIS2_PLACEMENT_3D ( 'NONE', #180, #312, #92 ) ;
#332 = ADVANCED_FACE ( 'NONE', ( #228 ), #112, .F. ) ;
#333 = LINE ( 'NONE', #195, #69 ) ;
#334 = DIRECTION ( 'NONE',  ( -0.000000000000000000, 1.000000000000000000, -0.000000000000000000 ) ) ;
#335 = SURFACE_STYLE_USAGE ( .BOTH. , #196 ) ;
#336 = DIRECTION ( 'NONE',  ( -0.000000000000000000, 1.000000000000000000, -0.000000000000000000 ) ) ;
#337 = CARTESIAN_POINT ( 'NONE',  ( 0.000000000000000000, -32.79999999999999716, 0.000000000000000000 ) ) ;
#338 = ADVANCED_FACE ( 'NONE', ( #324 ), #94, .T. ) ;
#339 = DIRECTION ( 'NONE',  ( 0.000000000000000000, -0.7071067811865627828, -0.7071067811865321406 ) ) ;
#340 = VERTEX_POINT ( 'NONE', #346 ) ;
#341 = CIRCLE ( 'NONE', #304, 1.649999999999997025 ) ;
#342 = CARTESIAN_POINT ( 'NONE',  ( 0.000000000000000000, 32.79999999999999716, 0.000000000000000000 ) ) ;
#343 = CARTESIAN_POINT ( 'NONE',  ( 0.000000000000000000, 32.79999999999999716, 0.000000000000000000 ) ) ;
#344 = AXIS2_PLACEMENT_3D ( 'NONE', #337, #86, #88 ) ;
#345 = CYLINDRICAL_SURFACE ( 'NONE', #328, 1.649999999999996581 ) ;
#346 = CARTESIAN_POINT ( 'NONE',  ( 0.000000000000000000, 32.59999999999999432, -3.000000000000000444 ) ) ;
#347 = CYLINDRICAL_SURFACE ( 'NONE', #152, 3.000000000000000444 ) ;
#348 = PRODUCT_CONTEXT ( 'NONE', #357, 'mechanical' ) ;
#349 = CARTESIAN_POINT ( 'NONE',  ( 0.000000000000000000, 32.79999999999999716, 0.000000000000000000 ) ) ;
#350 = CARTESIAN_POINT ( 'NONE',  ( 0.000000000000000000, 19.29999999999999716, 1.649999999999997025 ) ) ;
#351 = AXIS2_PLACEMENT_3D ( 'NONE', #85, #87, #34 ) ;
#352 = ORIENTED_EDGE ( 'NONE', *, *, #138, .F. ) ;
#353 = FACE_OUTER_BOUND ( 'NONE', #253, .T. ) ;
#354 = AXIS2_PLACEMENT_3D ( 'NONE', #37, #198, #121 ) ;
#355 = ORIENTED_EDGE ( 'NONE', *, *, #226, .F. ) ;
#356 = AXIS2_PLACEMENT_3D ( 'NONE', #342, #336, #202 ) ;
#357 = APPLICATION_CONTEXT ( 'automotive_design' ) ;
#358 = MECHANICAL_DESIGN_GEOMETRIC_PRESENTATION_REPRESENTATION (  '', ( #245 ), #267 ) ;
#359 = ORIENTED_EDGE ( 'NONE', *, *, #216, .T. ) ;
ENDSEC;
END-ISO-10303-21;
