ISO-10303-21;
HEADER;
FILE_DESCRIPTION (( 'STEP AP214' ),
    '1' );
FILE_NAME ('38875~0.STEP',
    '2017-07-04T08:53:48',
    ( '' ),
    ( '' ),
    'SwSTEP 2.0',
    'SolidWorks 2016',
    '' );
FILE_SCHEMA (( 'AUTOMOTIVE_DESIGN' ));
ENDSEC;

DATA;
#1 = DIRECTION ( 'NONE',  ( -0.0000000000000000000, -1.000000000000000000, -0.0000000000000000000 ) ) ;
#2 = ADVANCED_FACE ( 'NONE', ( #269, #118 ), #80, .T. ) ;
#3 = AXIS2_PLACEMENT_3D ( 'NONE', #34, #58, #347 ) ;
#4 = DIRECTION ( 'NONE',  ( 0.0000000000000000000, 1.000000000000000000, 0.0000000000000000000 ) ) ;
#5 = PRODUCT_DEFINITION_CONTEXT ( 'detailed design', #81, 'design' ) ;
#6 = LINE ( 'NONE', #141, #20 ) ;
#7 = CONICAL_SURFACE ( 'NONE', #365, 0.4999999999999987200, 0.7853981633974466100 ) ;
#8 = AXIS2_PLACEMENT_3D ( 'NONE', #209, #106, #358 ) ;
#9 = FACE_OUTER_BOUND ( 'NONE', #140, .T. ) ;
#10 = CONICAL_SURFACE ( 'NONE', #196, 1.000499999999999900, 0.5235987755983002600 ) ;
#11 = SURFACE_STYLE_FILL_AREA ( #342 ) ;
#12 = AXIS2_PLACEMENT_3D ( 'NONE', #346, #4, #139 ) ;
#13 = LINE ( 'NONE', #47, #102 ) ;
#14 = VERTEX_POINT ( 'NONE', #22 ) ;
#15 = CARTESIAN_POINT ( 'NONE',  ( 0.0000000000000000000, 6.999999999999999100, 0.0000000000000000000 ) ) ;
#16 = DIRECTION ( 'NONE',  ( 0.0000000000000000000, 0.0000000000000000000, -1.000000000000000000 ) ) ;
#17 = DIRECTION ( 'NONE',  ( 8.659560562354918100E-017, 0.7071067811865487900, -0.7071067811865463500 ) ) ;
#18 = ORIENTED_EDGE ( 'NONE', *, *, #93, .T. ) ;
#19 = SURFACE_STYLE_USAGE ( .BOTH. , #48 ) ;
#20 = VECTOR ( 'NONE', #1, 1000.000000000000000 ) ;
#21 = CARTESIAN_POINT ( 'NONE',  ( 0.0000000000000000000, 13.00000000000000200, -1.000499999999999900 ) ) ;
#22 = CARTESIAN_POINT ( 'NONE',  ( 4.121514395244985500E-017, 13.99999999999999800, -0.07673956929659928000 ) ) ;
#23 = LINE ( 'NONE', #188, #164 ) ;
#24 = DIRECTION ( 'NONE',  ( -0.0000000000000000000, -1.000000000000000000, -0.0000000000000000000 ) ) ;
#25 = EDGE_LOOP ( 'NONE', ( #208, #112, #104, #323 ) ) ;
#26 = UNCERTAINTY_MEASURE_WITH_UNIT (LENGTH_MEASURE( 1.000000000000000100E-005 ), #286, 'distance_accuracy_value', 'NONE');
#27 = EDGE_LOOP ( 'NONE', ( #160, #239, #153, #332 ) ) ;
#28 =( NAMED_UNIT ( * ) SI_UNIT ( $, .STERADIAN. ) SOLID_ANGLE_UNIT ( ) );
#29 = DIRECTION ( 'NONE',  ( 0.0000000000000000000, 0.0000000000000000000, -1.000000000000000000 ) ) ;
#30 = ADVANCED_FACE ( 'NONE', ( #202 ), #281, .T. ) ;
#31 = AXIS2_PLACEMENT_3D ( 'NONE', #271, #246, #74 ) ;
#32 = ORIENTED_EDGE ( 'NONE', *, *, #121, .F. ) ;
#33 = CARTESIAN_POINT ( 'NONE',  ( 0.0000000000000000000, 6.999999999999999100, -1.000000000000000000 ) ) ;
#34 = CARTESIAN_POINT ( 'NONE',  ( 0.0000000000000000000, 13.00000000000000200, 0.0000000000000000000 ) ) ;
#35 = AXIS2_PLACEMENT_3D ( 'NONE', #257, #261, #54 ) ;
#36 = ORIENTED_EDGE ( 'NONE', *, *, #329, .T. ) ;
#37 = FACE_OUTER_BOUND ( 'NONE', #242, .T. ) ;
#38 = EDGE_CURVE ( 'NONE', #285, #97, #23, .T. ) ;
#39 = AXIS2_PLACEMENT_3D ( 'NONE', #171, #199, #144 ) ;
#40 = VERTEX_POINT ( 'NONE', #85 ) ;
#41 = EDGE_CURVE ( 'NONE', #318, #155, #13, .T. ) ;
#42 = CARTESIAN_POINT ( 'NONE',  ( 0.0000000000000000000, 0.0000000000000000000, 0.0000000000000000000 ) ) ;
#43 = DIRECTION ( 'NONE',  ( 0.0000000000000000000, 0.0000000000000000000, 1.000000000000000000 ) ) ;
#44 = AXIS2_PLACEMENT_3D ( 'NONE', #216, #333, #46 ) ;
#45 = DIRECTION ( 'NONE',  ( -0.0000000000000000000, -1.000000000000000000, -0.0000000000000000000 ) ) ;
#46 = DIRECTION ( 'NONE',  ( 0.0000000000000000000, 0.0000000000000000000, 1.000000000000000000 ) ) ;
#47 = CARTESIAN_POINT ( 'NONE',  ( 0.0000000000000000000, 0.0000000000000000000, 0.4999999999999987200 ) ) ;
#48 = SURFACE_SIDE_STYLE ('',( #353 ) ) ;
#49 = ORIENTED_EDGE ( 'NONE', *, *, #262, .F. ) ;
#50 = CIRCLE ( 'NONE', #207, 1.000499999999999900 ) ;
#51 = CIRCLE ( 'NONE', #357, 0.07673956929659928000 ) ;
#52 = DIRECTION ( 'NONE',  ( 0.0000000000000000000, 0.0000000000000000000, -1.000000000000000000 ) ) ;
#53 = DIRECTION ( 'NONE',  ( 0.0000000000000000000, 1.000000000000000000, 0.0000000000000000000 ) ) ;
#54 = DIRECTION ( 'NONE',  ( 0.0000000000000000000, 0.0000000000000000000, -1.000000000000000000 ) ) ;
#55 = SURFACE_STYLE_USAGE ( .BOTH. , #288 ) ;
#56 = CIRCLE ( 'NONE', #3, 1.000499999999999900 ) ;
#57 = ADVANCED_FACE ( 'NONE', ( #260 ), #125, .T. ) ;
#58 = DIRECTION ( 'NONE',  ( -0.0000000000000000000, -1.000000000000000000, -0.0000000000000000000 ) ) ;
#59 = VERTEX_POINT ( 'NONE', #275 ) ;
#60 = CIRCLE ( 'NONE', #39, 0.5999999999999999800 ) ;
#61 = SHAPE_DEFINITION_REPRESENTATION ( #206, #371 ) ;
#62 = LINE ( 'NONE', #21, #292 ) ;
#63 = ORIENTED_EDGE ( 'NONE', *, *, #148, .F. ) ;
#64 = AXIS2_PLACEMENT_3D ( 'NONE', #354, #274, #212 ) ;
#65 = ORIENTED_EDGE ( 'NONE', *, *, #121, .T. ) ;
#66 = CIRCLE ( 'NONE', #245, 1.000000000000000000 ) ;
#67 = ORIENTED_EDGE ( 'NONE', *, *, #296, .F. ) ;
#68 = EDGE_CURVE ( 'NONE', #320, #175, #62, .T. ) ;
#69 = EDGE_CURVE ( 'NONE', #175, #285, #367, .T. ) ;
#70 = CARTESIAN_POINT ( 'NONE',  ( 0.0000000000000000000, 13.00000000000000200, 0.0000000000000000000 ) ) ;
#71 = EDGE_LOOP ( 'NONE', ( #73, #263, #229, #254 ) ) ;
#72 = CARTESIAN_POINT ( 'NONE',  ( 1.224646799147353200E-016, 0.0000000000000000000, 1.000000000000000000 ) ) ;
#73 = ORIENTED_EDGE ( 'NONE', *, *, #329, .F. ) ;
#74 = DIRECTION ( 'NONE',  ( 1.224646799147353000E-016, 0.0000000000000000000, -1.000000000000000000 ) ) ;
#75 = FACE_OUTER_BOUND ( 'NONE', #327, .T. ) ;
#76 = DIRECTION ( 'NONE',  ( 0.0000000000000000000, 0.0000000000000000000, -1.000000000000000000 ) ) ;
#77 = DIRECTION ( 'NONE',  ( -0.0000000000000000000, -1.000000000000000000, -0.0000000000000000000 ) ) ;
#78 = DIRECTION ( 'NONE',  ( -0.0000000000000000000, -1.000000000000000000, -0.0000000000000000000 ) ) ;
#79 = AXIS2_PLACEMENT_3D ( 'NONE', #145, #231, #29 ) ;
#80 = PLANE ( 'NONE',  #110 ) ;
#81 = APPLICATION_CONTEXT ( 'automotive_design' ) ;
#82 = CIRCLE ( 'NONE', #174, 0.4999999999999987200 ) ;
#83 = ADVANCED_FACE ( 'NONE', ( #308 ), #264, .T. ) ;
#84 = CLOSED_SHELL ( 'NONE', ( #86, #314, #57, #343, #368, #195, #83, #256, #2, #30, #115, #137, #280 ) ) ;
#85 = CARTESIAN_POINT ( 'NONE',  ( 9.777915668444483000E-017, 13.69999999999999900, 0.5963548115672614400 ) ) ;
#86 = ADVANCED_FACE ( 'NONE', ( #37 ), #127, .T. ) ;
#87 = ORIENTED_EDGE ( 'NONE', *, *, #266, .F. ) ;
#88 = PLANE ( 'NONE',  #12 ) ;
#89 = LINE ( 'NONE', #72, #135 ) ;
#90 = AXIS2_PLACEMENT_3D ( 'NONE', #331, #355, #43 ) ;
#91 = VERTEX_POINT ( 'NONE', #219 ) ;
#92 = DIRECTION ( 'NONE',  ( 0.0000000000000000000, 0.0000000000000000000, 1.000000000000000000 ) ) ;
#93 = EDGE_CURVE ( 'NONE', #91, #318, #82, .T. ) ;
#94 = CARTESIAN_POINT ( 'NONE',  ( 0.0000000000000000000, 13.99999999999999800, 0.0000000000000000000 ) ) ;
#95 = CIRCLE ( 'NONE', #79, 1.000000000000000000 ) ;
#96 = EDGE_LOOP ( 'NONE', ( #65, #338, #181, #301 ) ) ;
#97 = VERTEX_POINT ( 'NONE', #249 ) ;
#98 = EDGE_CURVE ( 'NONE', #59, #97, #50, .T. ) ;
#99 = ORIENTED_EDGE ( 'NONE', *, *, #235, .T. ) ;
#100 = STYLED_ITEM ( 'NONE', ( #297 ), #225 ) ;
#101 = LINE ( 'NONE', #244, #258 ) ;
#102 = VECTOR ( 'NONE', #167, 1000.000000000000000 ) ;
#103 = EDGE_LOOP ( 'NONE', ( #151, #18 ) ) ;
#104 = ORIENTED_EDGE ( 'NONE', *, *, #241, .T. ) ;
#105 = DIRECTION ( 'NONE',  ( -0.0000000000000000000, -1.000000000000000000, -0.0000000000000000000 ) ) ;
#106 = DIRECTION ( 'NONE',  ( -0.0000000000000000000, -1.000000000000000000, -0.0000000000000000000 ) ) ;
#107 = CARTESIAN_POINT ( 'NONE',  ( 0.0000000000000000000, 0.0000000000000000000, 0.4999999999999987200 ) ) ;
#108 =( NAMED_UNIT ( * ) PLANE_ANGLE_UNIT ( ) SI_UNIT ( $, .RADIAN. ) );
#109 = PLANE ( 'NONE',  #307 ) ;
#110 = AXIS2_PLACEMENT_3D ( 'NONE', #335, #224, #364 ) ;
#111 = DIRECTION ( 'NONE',  ( 0.0000000000000000000, 0.0000000000000000000, -1.000000000000000000 ) ) ;
#112 = ORIENTED_EDGE ( 'NONE', *, *, #148, .T. ) ;
#113 = CARTESIAN_POINT ( 'NONE',  ( 1.225259122546926700E-016, 13.00000000000000200, 1.000499999999999900 ) ) ;
#114 = FACE_OUTER_BOUND ( 'NONE', #349, .T. ) ;
#115 = ADVANCED_FACE ( 'NONE', ( #238 ), #109, .T. ) ;
#116 = CARTESIAN_POINT ( 'NONE',  ( 0.0000000000000000000, 13.99999999999999800, 0.07673956929659928000 ) ) ;
#117 = UNCERTAINTY_MEASURE_WITH_UNIT (LENGTH_MEASURE( 1.000000000000000100E-005 ), #162, 'distance_accuracy_value', 'NONE');
#118 = FACE_BOUND ( 'NONE', #326, .T. ) ;
#119 = AXIS2_PLACEMENT_3D ( 'NONE', #42, #77, #328 ) ;
#120 = CIRCLE ( 'NONE', #215, 1.000000000000000000 ) ;
#121 = EDGE_CURVE ( 'NONE', #320, #40, #350, .T. ) ;
#122 = PRESENTATION_LAYER_ASSIGNMENT (  '', '', ( #100 ) ) ;
#123 = CYLINDRICAL_SURFACE ( 'NONE', #119, 1.000499999999999900 ) ;
#124 = DIRECTION ( 'NONE',  ( 0.0000000000000000000, 0.0000000000000000000, -1.000000000000000000 ) ) ;
#125 = CYLINDRICAL_SURFACE ( 'NONE', #154, 1.000000000000000000 ) ;
#126 = VERTEX_POINT ( 'NONE', #116 ) ;
#127 = TOROIDAL_SURFACE ( 'NONE', #186, 0.07673956929659928000, 0.5999999999999999800 ) ;
#128 = CIRCLE ( 'NONE', #321, 1.000000000000000000 ) ;
#129 = CARTESIAN_POINT ( 'NONE',  ( 6.123233995736750000E-017, 0.0000000000000000000, -0.4999999999999987200 ) ) ;
#130 = CARTESIAN_POINT ( 'NONE',  ( 0.0000000000000000000, 13.00000000000000200, 0.0000000000000000000 ) ) ;
#131 = DIRECTION ( 'NONE',  ( 0.0000000000000000000, 0.0000000000000000000, -1.000000000000000000 ) ) ;
#132 = AXIS2_PLACEMENT_3D ( 'NONE', #130, #359, #136 ) ;
#133 = ORIENTED_EDGE ( 'NONE', *, *, #41, .F. ) ;
#134 = DIRECTION ( 'NONE',  ( -0.0000000000000000000, -1.000000000000000000, -0.0000000000000000000 ) ) ;
#135 = VECTOR ( 'NONE', #159, 1000.000000000000000 ) ;
#136 = DIRECTION ( 'NONE',  ( 0.0000000000000000000, 0.0000000000000000000, -1.000000000000000000 ) ) ;
#137 = ADVANCED_FACE ( 'NONE', ( #114 ), #7, .T. ) ;
#138 =( NAMED_UNIT ( * ) SI_UNIT ( $, .STERADIAN. ) SOLID_ANGLE_UNIT ( ) );
#139 = DIRECTION ( 'NONE',  ( 0.0000000000000000000, -0.0000000000000000000, 1.000000000000000000 ) ) ;
#140 = EDGE_LOOP ( 'NONE', ( #200, #243, #67, #133 ) ) ;
#141 = CARTESIAN_POINT ( 'NONE',  ( 0.0000000000000000000, 0.0000000000000000000, -1.000000000000000000 ) ) ;
#142 = EDGE_LOOP ( 'NONE', ( #276, #99, #233, #356 ) ) ;
#143 =( GEOMETRIC_REPRESENTATION_CONTEXT ( 3 ) GLOBAL_UNCERTAINTY_ASSIGNED_CONTEXT ( ( #252 ) ) GLOBAL_UNIT_ASSIGNED_CONTEXT ( ( #220, #168, #28 ) ) REPRESENTATION_CONTEXT ( 'NONE', 'WORKASPACE' ) );
#144 = DIRECTION ( 'NONE',  ( 0.0000000000000000000, 0.0000000000000000000, 1.000000000000000000 ) ) ;
#145 = CARTESIAN_POINT ( 'NONE',  ( 0.0000000000000000000, 6.999999999999999100, 0.0000000000000000000 ) ) ;
#146 = ORIENTED_EDGE ( 'NONE', *, *, #302, .F. ) ;
#147 = CARTESIAN_POINT ( 'NONE',  ( 1.224646799147353200E-016, 0.5000000000000030000, 1.000000000000000000 ) ) ;
#148 = EDGE_CURVE ( 'NONE', #189, #191, #95, .T. ) ;
#149 = MECHANICAL_DESIGN_GEOMETRIC_PRESENTATION_REPRESENTATION (  '', ( #100 ), #165 ) ;
#150 = ORIENTED_EDGE ( 'NONE', *, *, #235, .F. ) ;
#151 = ORIENTED_EDGE ( 'NONE', *, *, #311, .T. ) ;
#152 = FACE_OUTER_BOUND ( 'NONE', #71, .T. ) ;
#153 = ORIENTED_EDGE ( 'NONE', *, *, #296, .T. ) ;
#154 = AXIS2_PLACEMENT_3D ( 'NONE', #251, #78, #366 ) ;
#155 = VERTEX_POINT ( 'NONE', #147 ) ;
#156 = CARTESIAN_POINT ( 'NONE',  ( 0.0000000000000000000, 0.0000000000000000000, 0.0000000000000000000 ) ) ;
#157 = FILL_AREA_STYLE_COLOUR ( '', #351 ) ;
#158 =( GEOMETRIC_REPRESENTATION_CONTEXT ( 3 ) GLOBAL_UNCERTAINTY_ASSIGNED_CONTEXT ( ( #117 ) ) GLOBAL_UNIT_ASSIGNED_CONTEXT ( ( #162, #108, #138 ) ) REPRESENTATION_CONTEXT ( 'NONE', 'WORKASPACE' ) );
#159 = DIRECTION ( 'NONE',  ( -0.0000000000000000000, -1.000000000000000000, -0.0000000000000000000 ) ) ;
#160 = ORIENTED_EDGE ( 'NONE', *, *, #262, .T. ) ;
#161 = DIRECTION ( 'NONE',  ( 0.0000000000000000000, -0.8660254037844380400, -0.5000000000000012200 ) ) ;
#162 =( LENGTH_UNIT ( ) NAMED_UNIT ( * ) SI_UNIT ( .MILLI., .METRE. ) );
#163 = DIRECTION ( 'NONE',  ( 0.0000000000000000000, 0.0000000000000000000, -1.000000000000000000 ) ) ;
#164 = VECTOR ( 'NONE', #217, 1000.000000000000000 ) ;
#165 =( GEOMETRIC_REPRESENTATION_CONTEXT ( 3 ) GLOBAL_UNCERTAINTY_ASSIGNED_CONTEXT ( ( #26 ) ) GLOBAL_UNIT_ASSIGNED_CONTEXT ( ( #286, #370, #193 ) ) REPRESENTATION_CONTEXT ( 'NONE', 'WORKASPACE' ) );
#166 = ORIENTED_EDGE ( 'NONE', *, *, #38, .T. ) ;
#167 = DIRECTION ( 'NONE',  ( 0.0000000000000000000, 0.7071067811865487900, 0.7071067811865463500 ) ) ;
#168 =( NAMED_UNIT ( * ) PLANE_ANGLE_UNIT ( ) SI_UNIT ( $, .RADIAN. ) );
#169 = ORIENTED_EDGE ( 'NONE', *, *, #221, .T. ) ;
#170 = EDGE_CURVE ( 'NONE', #40, #126, #60, .T. ) ;
#171 = CARTESIAN_POINT ( 'NONE',  ( 0.0000000000000000000, 13.39999999999999900, 0.07673956929659928000 ) ) ;
#172 = ORIENTED_EDGE ( 'NONE', *, *, #98, .F. ) ;
#173 = CARTESIAN_POINT ( 'NONE',  ( 0.0000000000000000000, 13.00000000000000200, -1.000499999999999900 ) ) ;
#174 = AXIS2_PLACEMENT_3D ( 'NONE', #282, #361, #185 ) ;
#175 = VERTEX_POINT ( 'NONE', #173 ) ;
#176 = EDGE_LOOP ( 'NONE', ( #211, #227, #294, #150 ) ) ;
#177 = AXIS2_PLACEMENT_3D ( 'NONE', #341, #250, #187 ) ;
#178 = ORIENTED_EDGE ( 'NONE', *, *, #170, .F. ) ;
#179 = PRESENTATION_STYLE_ASSIGNMENT (( #19 ) ) ;
#180 = EDGE_CURVE ( 'NONE', #40, #285, #267, .T. ) ;
#181 = ORIENTED_EDGE ( 'NONE', *, *, #69, .F. ) ;
#182 = CARTESIAN_POINT ( 'NONE',  ( 0.0000000000000000000, 13.99999999999999800, 0.0000000000000000000 ) ) ;
#183 = FACE_OUTER_BOUND ( 'NONE', #96, .T. ) ;
#184 = DIRECTION ( 'NONE',  ( 0.0000000000000000000, 1.000000000000000000, 0.0000000000000000000 ) ) ;
#185 = DIRECTION ( 'NONE',  ( 0.0000000000000000000, 0.0000000000000000000, -1.000000000000000000 ) ) ;
#186 = AXIS2_PLACEMENT_3D ( 'NONE', #190, #184, #279 ) ;
#187 = DIRECTION ( 'NONE',  ( 1.000000000000000000, 0.0000000000000000000, 0.0000000000000000000 ) ) ;
#188 = CARTESIAN_POINT ( 'NONE',  ( 1.225259122546926700E-016, 0.0000000000000000000, 1.000499999999999900 ) ) ;
#189 = VERTEX_POINT ( 'NONE', #259 ) ;
#190 = CARTESIAN_POINT ( 'NONE',  ( 0.0000000000000000000, 13.39999999999999900, 0.0000000000000000000 ) ) ;
#191 = VERTEX_POINT ( 'NONE', #33 ) ;
#192 = APPLICATION_CONTEXT ( 'automotive_design' ) ;
#193 =( NAMED_UNIT ( * ) SI_UNIT ( $, .STERADIAN. ) SOLID_ANGLE_UNIT ( ) );
#194 = CARTESIAN_POINT ( 'NONE',  ( 0.0000000000000000000, 0.5000000000000030000, -1.000000000000000000 ) ) ;
#195 = ADVANCED_FACE ( 'NONE', ( #339 ), #88, .T. ) ;
#196 = AXIS2_PLACEMENT_3D ( 'NONE', #70, #105, #76 ) ;
#197 = DIRECTION ( 'NONE',  ( -0.0000000000000000000, -1.000000000000000000, -0.0000000000000000000 ) ) ;
#198 = CIRCLE ( 'NONE', #31, 0.5999999999999999800 ) ;
#199 = DIRECTION ( 'NONE',  ( -1.000000000000000000, 0.0000000000000000000, 0.0000000000000000000 ) ) ;
#200 = ORIENTED_EDGE ( 'NONE', *, *, #93, .F. ) ;
#201 = AXIS2_PLACEMENT_3D ( 'NONE', #94, #234, #290 ) ;
#202 = FACE_OUTER_BOUND ( 'NONE', #25, .T. ) ;
#203 = PRESENTATION_LAYER_ASSIGNMENT (  '', '', ( #300 ) ) ;
#204 = EDGE_LOOP ( 'NONE', ( #372, #169 ) ) ;
#205 = CIRCLE ( 'NONE', #90, 0.5963548115672614400 ) ;
#206 = PRODUCT_DEFINITION_SHAPE ( 'NONE', 'NONE',  #317 ) ;
#207 = AXIS2_PLACEMENT_3D ( 'NONE', #309, #24, #52 ) ;
#208 = ORIENTED_EDGE ( 'NONE', *, *, #278, .F. ) ;
#209 = CARTESIAN_POINT ( 'NONE',  ( 0.0000000000000000000, 0.0000000000000000000, 0.0000000000000000000 ) ) ;
#210 = DIRECTION ( 'NONE',  ( 0.0000000000000000000, 0.0000000000000000000, -1.000000000000000000 ) ) ;
#211 = ORIENTED_EDGE ( 'NONE', *, *, #180, .F. ) ;
#212 = DIRECTION ( 'NONE',  ( 0.0000000000000000000, 0.0000000000000000000, 1.000000000000000000 ) ) ;
#213 = ORIENTED_EDGE ( 'NONE', *, *, #255, .F. ) ;
#214 = DIRECTION ( 'NONE',  ( 0.0000000000000000000, 1.000000000000000000, 0.0000000000000000000 ) ) ;
#215 = AXIS2_PLACEMENT_3D ( 'NONE', #248, #214, #16 ) ;
#216 = CARTESIAN_POINT ( 'NONE',  ( 0.0000000000000000000, 0.0000000000000000000, 0.0000000000000000000 ) ) ;
#217 = DIRECTION ( 'NONE',  ( -0.0000000000000000000, -1.000000000000000000, -0.0000000000000000000 ) ) ;
#218 = VERTEX_POINT ( 'NONE', #194 ) ;
#219 = CARTESIAN_POINT ( 'NONE',  ( 9.184850993605141000E-017, 0.0000000000000000000, -0.4999999999999987200 ) ) ;
#220 =( LENGTH_UNIT ( ) NAMED_UNIT ( * ) SI_UNIT ( .MILLI., .METRE. ) );
#221 = EDGE_CURVE ( 'NONE', #97, #59, #270, .T. ) ;
#222 = CONICAL_SURFACE ( 'NONE', #44, 0.4999999999999987200, 0.7853981633974466100 ) ;
#223 = CARTESIAN_POINT ( 'NONE',  ( 0.0000000000000000000, 0.0000000000000000000, 0.0000000000000000000 ) ) ;
#224 = DIRECTION ( 'NONE',  ( 0.0000000000000000000, -1.000000000000000000, -0.0000000000000000000 ) ) ;
#225 = MANIFOLD_SOLID_BREP ( 'Verrundung1', #84 ) ;
#226 = DIRECTION ( 'NONE',  ( -0.0000000000000000000, -1.000000000000000000, -0.0000000000000000000 ) ) ;
#227 = ORIENTED_EDGE ( 'NONE', *, *, #322, .T. ) ;
#228 = MECHANICAL_DESIGN_GEOMETRIC_PRESENTATION_REPRESENTATION (  '', ( #300 ), #158 ) ;
#229 = ORIENTED_EDGE ( 'NONE', *, *, #170, .T. ) ;
#230 = EDGE_CURVE ( 'NONE', #14, #126, #289, .T. ) ;
#231 = DIRECTION ( 'NONE',  ( -0.0000000000000000000, -1.000000000000000000, -0.0000000000000000000 ) ) ;
#232 = FILL_AREA_STYLE_COLOUR ( '', #369 ) ;
#233 = ORIENTED_EDGE ( 'NONE', *, *, #266, .T. ) ;
#234 = DIRECTION ( 'NONE',  ( 0.0000000000000000000, 1.000000000000000000, 0.0000000000000000000 ) ) ;
#235 = EDGE_CURVE ( 'NONE', #285, #175, #56, .T. ) ;
#236 = ORIENTED_EDGE ( 'NONE', *, *, #302, .T. ) ;
#237 = VECTOR ( 'NONE', #17, 1000.000000000000000 ) ;
#238 = FACE_OUTER_BOUND ( 'NONE', #103, .T. ) ;
#239 = ORIENTED_EDGE ( 'NONE', *, *, #278, .T. ) ;
#240 = CIRCLE ( 'NONE', #8, 0.4999999999999987200 ) ;
#241 = EDGE_CURVE ( 'NONE', #191, #218, #6, .T. ) ;
#242 = EDGE_LOOP ( 'NONE', ( #32, #36, #146, #178 ) ) ;
#243 = ORIENTED_EDGE ( 'NONE', *, *, #287, .T. ) ;
#244 = CARTESIAN_POINT ( 'NONE',  ( 0.0000000000000000000, 0.0000000000000000000, -1.000499999999999900 ) ) ;
#245 = AXIS2_PLACEMENT_3D ( 'NONE', #340, #53, #131 ) ;
#246 = DIRECTION ( 'NONE',  ( 1.000000000000000000, -0.0000000000000000000, 1.224646799147353200E-016 ) ) ;
#247 = DIRECTION ( 'NONE',  ( 0.0000000000000000000, 0.0000000000000000000, 1.000000000000000000 ) ) ;
#248 = CARTESIAN_POINT ( 'NONE',  ( 0.0000000000000000000, 0.5000000000000030000, 0.0000000000000000000 ) ) ;
#249 = CARTESIAN_POINT ( 'NONE',  ( 1.225259122546926700E-016, 7.000000000000000000, 1.000499999999999900 ) ) ;
#250 = DIRECTION ( 'NONE',  ( 0.0000000000000000000, 0.0000000000000000000, 1.000000000000000000 ) ) ;
#251 = CARTESIAN_POINT ( 'NONE',  ( 0.0000000000000000000, 0.0000000000000000000, 0.0000000000000000000 ) ) ;
#252 = UNCERTAINTY_MEASURE_WITH_UNIT (LENGTH_MEASURE( 1.000000000000000100E-005 ), #220, 'distance_accuracy_value', 'NONE');
#253 = ORIENTED_EDGE ( 'NONE', *, *, #287, .F. ) ;
#254 = ORIENTED_EDGE ( 'NONE', *, *, #230, .F. ) ;
#255 = EDGE_CURVE ( 'NONE', #218, #155, #66, .T. ) ;
#256 = ADVANCED_FACE ( 'NONE', ( #273 ), #123, .T. ) ;
#257 = CARTESIAN_POINT ( 'NONE',  ( 0.0000000000000000000, 7.000000000000000000, 0.0000000000000000000 ) ) ;
#258 = VECTOR ( 'NONE', #45, 1000.000000000000000 ) ;
#259 = CARTESIAN_POINT ( 'NONE',  ( 1.224646799147353200E-016, 6.999999999999999100, 1.000000000000000000 ) ) ;
#260 = FACE_OUTER_BOUND ( 'NONE', #27, .T. ) ;
#261 = DIRECTION ( 'NONE',  ( -0.0000000000000000000, -1.000000000000000000, -0.0000000000000000000 ) ) ;
#262 = EDGE_CURVE ( 'NONE', #191, #189, #128, .T. ) ;
#263 = ORIENTED_EDGE ( 'NONE', *, *, #322, .F. ) ;
#264 = CONICAL_SURFACE ( 'NONE', #268, 1.000499999999999900, 0.5235987755983002600 ) ;
#265 = PRODUCT_DEFINITION_FORMATION_WITH_SPECIFIED_SOURCE ( 'ANY', '', #345, .NOT_KNOWN. ) ;
#266 = EDGE_CURVE ( 'NONE', #175, #59, #101, .T. ) ;
#267 = LINE ( 'NONE', #113, #352 ) ;
#268 = AXIS2_PLACEMENT_3D ( 'NONE', #303, #226, #163 ) ;
#269 = FACE_OUTER_BOUND ( 'NONE', #204, .T. ) ;
#270 = CIRCLE ( 'NONE', #35, 1.000499999999999900 ) ;
#271 = CARTESIAN_POINT ( 'NONE',  ( 9.397886790702681800E-018, 13.39999999999999900, -0.07673956929659928000 ) ) ;
#272 = DIRECTION ( 'NONE',  ( -0.0000000000000000000, -1.000000000000000000, -0.0000000000000000000 ) ) ;
#273 = FACE_OUTER_BOUND ( 'NONE', #142, .T. ) ;
#274 = DIRECTION ( 'NONE',  ( 0.0000000000000000000, 1.000000000000000000, 0.0000000000000000000 ) ) ;
#275 = CARTESIAN_POINT ( 'NONE',  ( 0.0000000000000000000, 7.000000000000000000, -1.000499999999999900 ) ) ;
#276 = ORIENTED_EDGE ( 'NONE', *, *, #38, .F. ) ;
#277 = PRODUCT_CONTEXT ( 'NONE', #192, 'mechanical' ) ;
#278 = EDGE_CURVE ( 'NONE', #189, #155, #89, .T. ) ;
#279 = DIRECTION ( 'NONE',  ( 0.0000000000000000000, 0.0000000000000000000, 1.000000000000000000 ) ) ;
#280 = ADVANCED_FACE ( 'NONE', ( #152 ), #305, .T. ) ;
#281 = CYLINDRICAL_SURFACE ( 'NONE', #348, 1.000000000000000000 ) ;
#282 = CARTESIAN_POINT ( 'NONE',  ( 0.0000000000000000000, 0.0000000000000000000, 0.0000000000000000000 ) ) ;
#283 = AXIS2_PLACEMENT_3D ( 'NONE', #156, #272, #210 ) ;
#284 = APPLICATION_PROTOCOL_DEFINITION ( 'draft international standard', 'automotive_design', 1998, #81 ) ;
#285 = VERTEX_POINT ( 'NONE', #330 ) ;
#286 =( LENGTH_UNIT ( ) NAMED_UNIT ( * ) SI_UNIT ( .MILLI., .METRE. ) );
#287 = EDGE_CURVE ( 'NONE', #91, #218, #315, .T. ) ;
#288 = SURFACE_SIDE_STYLE ('',( #11 ) ) ;
#289 = CIRCLE ( 'NONE', #201, 0.07673956929659928000 ) ;
#290 = DIRECTION ( 'NONE',  ( 0.0000000000000000000, 0.0000000000000000000, 1.000000000000000000 ) ) ;
#291 = DIRECTION ( 'NONE',  ( 6.123233995736782100E-017, -0.8660254037844380400, 0.5000000000000012200 ) ) ;
#292 = VECTOR ( 'NONE', #161, 999.9999999999998900 ) ;
#293 = ORIENTED_EDGE ( 'NONE', *, *, #311, .F. ) ;
#294 = ORIENTED_EDGE ( 'NONE', *, *, #68, .T. ) ;
#295 = EDGE_LOOP ( 'NONE', ( #236, #298 ) ) ;
#296 = EDGE_CURVE ( 'NONE', #155, #218, #120, .T. ) ;
#297 = PRESENTATION_STYLE_ASSIGNMENT (( #55 ) ) ;
#298 = ORIENTED_EDGE ( 'NONE', *, *, #230, .T. ) ;
#299 = DIRECTION ( 'NONE',  ( -0.0000000000000000000, -1.000000000000000000, -0.0000000000000000000 ) ) ;
#300 = STYLED_ITEM ( 'NONE', ( #179 ), #371 ) ;
#301 = ORIENTED_EDGE ( 'NONE', *, *, #68, .F. ) ;
#302 = EDGE_CURVE ( 'NONE', #126, #14, #51, .T. ) ;
#303 = CARTESIAN_POINT ( 'NONE',  ( 0.0000000000000000000, 13.00000000000000200, 0.0000000000000000000 ) ) ;
#304 = CARTESIAN_POINT ( 'NONE',  ( 0.0000000000000000000, 13.69999999999999900, -0.5963548115672614400 ) ) ;
#305 = TOROIDAL_SURFACE ( 'NONE', #64, 0.07673956929659928000, 0.5999999999999999800 ) ;
#306 = CARTESIAN_POINT ( 'NONE',  ( 0.0000000000000000000, 0.0000000000000000000, 0.0000000000000000000 ) ) ;
#307 = AXIS2_PLACEMENT_3D ( 'NONE', #306, #337, #310 ) ;
#308 = FACE_OUTER_BOUND ( 'NONE', #176, .T. ) ;
#309 = CARTESIAN_POINT ( 'NONE',  ( 0.0000000000000000000, 7.000000000000000000, 0.0000000000000000000 ) ) ;
#310 = DIRECTION ( 'NONE',  ( 0.0000000000000000000, 0.0000000000000000000, -1.000000000000000000 ) ) ;
#311 = EDGE_CURVE ( 'NONE', #318, #91, #240, .T. ) ;
#312 = DIRECTION ( 'NONE',  ( 0.0000000000000000000, 1.000000000000000000, 0.0000000000000000000 ) ) ;
#313 = ORIENTED_EDGE ( 'NONE', *, *, #41, .T. ) ;
#314 = ADVANCED_FACE ( 'NONE', ( #9 ), #222, .T. ) ;
#315 = LINE ( 'NONE', #129, #237 ) ;
#316 = DIRECTION ( 'NONE',  ( 0.0000000000000000000, 0.0000000000000000000, 1.000000000000000000 ) ) ;
#317 = PRODUCT_DEFINITION ( 'UNKNOWN', '', #265, #5 ) ;
#318 = VERTEX_POINT ( 'NONE', #107 ) ;
#319 = CARTESIAN_POINT ( 'NONE',  ( 0.0000000000000000000, 0.0000000000000000000, 0.0000000000000000000 ) ) ;
#320 = VERTEX_POINT ( 'NONE', #304 ) ;
#321 = AXIS2_PLACEMENT_3D ( 'NONE', #15, #299, #124 ) ;
#322 = EDGE_CURVE ( 'NONE', #40, #320, #205, .T. ) ;
#323 = ORIENTED_EDGE ( 'NONE', *, *, #255, .T. ) ;
#324 = CYLINDRICAL_SURFACE ( 'NONE', #283, 1.000499999999999900 ) ;
#325 = AXIS2_PLACEMENT_3D ( 'NONE', #344, #197, #316 ) ;
#326 = EDGE_LOOP ( 'NONE', ( #49, #63 ) ) ;
#327 = EDGE_LOOP ( 'NONE', ( #362, #166, #172, #87 ) ) ;
#328 = DIRECTION ( 'NONE',  ( 0.0000000000000000000, 0.0000000000000000000, -1.000000000000000000 ) ) ;
#329 = EDGE_CURVE ( 'NONE', #320, #14, #198, .T. ) ;
#330 = CARTESIAN_POINT ( 'NONE',  ( 1.225259122546926700E-016, 13.00000000000000200, 1.000499999999999900 ) ) ;
#331 = CARTESIAN_POINT ( 'NONE',  ( 0.0000000000000000000, 13.69999999999999900, 0.0000000000000000000 ) ) ;
#332 = ORIENTED_EDGE ( 'NONE', *, *, #241, .F. ) ;
#333 = DIRECTION ( 'NONE',  ( 0.0000000000000000000, 1.000000000000000000, 0.0000000000000000000 ) ) ;
#334 = PRODUCT_RELATED_PRODUCT_CATEGORY ( 'part', '', ( #345 ) ) ;
#335 = CARTESIAN_POINT ( 'NONE',  ( 1.000000000000000000, 6.999999999999999100, 0.0000000000000000000 ) ) ;
#336 = DIRECTION ( 'NONE',  ( 0.0000000000000000000, 1.000000000000000000, 0.0000000000000000000 ) ) ;
#337 = DIRECTION ( 'NONE',  ( 0.0000000000000000000, -1.000000000000000000, -0.0000000000000000000 ) ) ;
#338 = ORIENTED_EDGE ( 'NONE', *, *, #180, .T. ) ;
#339 = FACE_OUTER_BOUND ( 'NONE', #295, .T. ) ;
#340 = CARTESIAN_POINT ( 'NONE',  ( 0.0000000000000000000, 0.5000000000000030000, 0.0000000000000000000 ) ) ;
#341 = CARTESIAN_POINT ( 'NONE',  ( 0.0000000000000000000, 0.0000000000000000000, 0.0000000000000000000 ) ) ;
#342 = FILL_AREA_STYLE ('',( #232 ) ) ;
#343 = ADVANCED_FACE ( 'NONE', ( #75 ), #324, .T. ) ;
#344 = CARTESIAN_POINT ( 'NONE',  ( 0.0000000000000000000, 13.69999999999999900, 0.0000000000000000000 ) ) ;
#345 = PRODUCT ( '38875~0', '38875~0', '', ( #277 ) ) ;
#346 = CARTESIAN_POINT ( 'NONE',  ( 0.4231497308103727700, 13.99999999999999800, 0.0000000000000000000 ) ) ;
#347 = DIRECTION ( 'NONE',  ( 0.0000000000000000000, 0.0000000000000000000, -1.000000000000000000 ) ) ;
#348 = AXIS2_PLACEMENT_3D ( 'NONE', #223, #134, #111 ) ;
#349 = EDGE_LOOP ( 'NONE', ( #253, #293, #313, #213 ) ) ;
#350 = CIRCLE ( 'NONE', #325, 0.5963548115672614400 ) ;
#351 = COLOUR_RGB ( '',0.7529411764705882200, 0.7529411764705882200, 0.7529411764705882200 ) ;
#352 = VECTOR ( 'NONE', #291, 999.9999999999998900 ) ;
#353 = SURFACE_STYLE_FILL_AREA ( #363 ) ;
#354 = CARTESIAN_POINT ( 'NONE',  ( 0.0000000000000000000, 13.39999999999999900, 0.0000000000000000000 ) ) ;
#355 = DIRECTION ( 'NONE',  ( -0.0000000000000000000, -1.000000000000000000, -0.0000000000000000000 ) ) ;
#356 = ORIENTED_EDGE ( 'NONE', *, *, #221, .F. ) ;
#357 = AXIS2_PLACEMENT_3D ( 'NONE', #182, #336, #247 ) ;
#358 = DIRECTION ( 'NONE',  ( 0.0000000000000000000, 0.0000000000000000000, -1.000000000000000000 ) ) ;
#359 = DIRECTION ( 'NONE',  ( -0.0000000000000000000, -1.000000000000000000, -0.0000000000000000000 ) ) ;
#360 = APPLICATION_PROTOCOL_DEFINITION ( 'draft international standard', 'automotive_design', 1998, #192 ) ;
#361 = DIRECTION ( 'NONE',  ( -0.0000000000000000000, -1.000000000000000000, -0.0000000000000000000 ) ) ;
#362 = ORIENTED_EDGE ( 'NONE', *, *, #69, .T. ) ;
#363 = FILL_AREA_STYLE ('',( #157 ) ) ;
#364 = DIRECTION ( 'NONE',  ( 0.0000000000000000000, 0.0000000000000000000, -1.000000000000000000 ) ) ;
#365 = AXIS2_PLACEMENT_3D ( 'NONE', #319, #312, #92 ) ;
#366 = DIRECTION ( 'NONE',  ( 0.0000000000000000000, 0.0000000000000000000, -1.000000000000000000 ) ) ;
#367 = CIRCLE ( 'NONE', #132, 1.000499999999999900 ) ;
#368 = ADVANCED_FACE ( 'NONE', ( #183 ), #10, .T. ) ;
#369 = COLOUR_RGB ( '',0.7529411764705882200, 0.7529411764705882200, 0.7529411764705882200 ) ;
#370 =( NAMED_UNIT ( * ) PLANE_ANGLE_UNIT ( ) SI_UNIT ( $, .RADIAN. ) );
#371 = ADVANCED_BREP_SHAPE_REPRESENTATION ( '38875~0', ( #225, #177 ), #143 ) ;
#372 = ORIENTED_EDGE ( 'NONE', *, *, #98, .T. ) ;
ENDSEC;
END-ISO-10303-21;
