ISO-10303-21;
HEADER;
FILE_DESCRIPTION (( 'STEP AP214' ),
    '1' );
FILE_NAME ('21628~0.STEP',
    '2017-07-04T13:50:28',
    ( '' ),
    ( '' ),
    'SwSTEP 2.0',
    'SolidWorks 2016',
    '' );
FILE_SCHEMA (( 'AUTOMOTIVE_DESIGN' ));
ENDSEC;

DATA;
#1 = SURFACE_STYLE_FILL_AREA ( #303 ) ;
#2 = DIRECTION ( 'NONE',  ( 0.0000000000000000000, 0.0000000000000000000, -1.000000000000000000 ) ) ;
#3 = AXIS2_PLACEMENT_3D ( 'NONE', #317, #250, #280 ) ;
#4 = CYLINDRICAL_SURFACE ( 'NONE', #153, 1.649999999999998100 ) ;
#5 = ORIENTED_EDGE ( 'NONE', *, *, #52, .T. ) ;
#6 = CARTESIAN_POINT ( 'NONE',  ( 0.0000000000000000000, 4.000000000000000000, 0.0000000000000000000 ) ) ;
#7 = EDGE_CURVE ( 'NONE', #119, #245, #163, .T. ) ;
#8 = ORIENTED_EDGE ( 'NONE', *, *, #315, .T. ) ;
#9 = CARTESIAN_POINT ( 'NONE',  ( 2.020667218593129600E-016, 5.000000000000000000, 1.649999999999997500 ) ) ;
#10 = EDGE_LOOP ( 'NONE', ( #88, #181 ) ) ;
#11 =( GEOMETRIC_REPRESENTATION_CONTEXT ( 3 ) GLOBAL_UNCERTAINTY_ASSIGNED_CONTEXT ( ( #65 ) ) GLOBAL_UNIT_ASSIGNED_CONTEXT ( ( #19, #252, #257 ) ) REPRESENTATION_CONTEXT ( 'NONE', 'WORKASPACE' ) );
#12 = CARTESIAN_POINT ( 'NONE',  ( 0.0000000000000000000, -5.000000000000000000, 0.0000000000000000000 ) ) ;
#13 = AXIS2_PLACEMENT_3D ( 'NONE', #213, #265, #2 ) ;
#14 = CARTESIAN_POINT ( 'NONE',  ( 0.0000000000000000000, -8.048191214470284300, -5.000000000000000000 ) ) ;
#15 = DIRECTION ( 'NONE',  ( -0.0000000000000000000, -1.000000000000000000, -0.0000000000000000000 ) ) ;
#16 = DIRECTION ( 'NONE',  ( 0.0000000000000000000, 0.0000000000000000000, -1.000000000000000000 ) ) ;
#17 = CARTESIAN_POINT ( 'NONE',  ( 0.0000000000000000000, 4.000000000000000000, -5.000000000000000000 ) ) ;
#18 = AXIS2_PLACEMENT_3D ( 'NONE', #47, #233, #74 ) ;
#19 =( LENGTH_UNIT ( ) NAMED_UNIT ( * ) SI_UNIT ( .MILLI., .METRE. ) );
#20 = FACE_OUTER_BOUND ( 'NONE', #240, .T. ) ;
#21 = DIRECTION ( 'NONE',  ( 1.000000000000000000, 0.0000000000000000000, 0.0000000000000000000 ) ) ;
#22 = DIRECTION ( 'NONE',  ( -0.0000000000000000000, -1.000000000000000000, -0.0000000000000000000 ) ) ;
#23 = ADVANCED_FACE ( 'NONE', ( #310 ), #179, .F. ) ;
#24 = PRESENTATION_LAYER_ASSIGNMENT (  '', '', ( #41 ) ) ;
#25 = FACE_OUTER_BOUND ( 'NONE', #277, .T. ) ;
#26 = ORIENTED_EDGE ( 'NONE', *, *, #116, .T. ) ;
#27 = SURFACE_SIDE_STYLE ('',( #33 ) ) ;
#28 =( NAMED_UNIT ( * ) SI_UNIT ( $, .STERADIAN. ) SOLID_ANGLE_UNIT ( ) );
#29 = MANIFOLD_SOLID_BREP ( 'M4x0.7 Gewindekernloch1', #77 ) ;
#30 = LINE ( 'NONE', #9, #237 ) ;
#31 = CARTESIAN_POINT ( 'NONE',  ( 0.0000000000000000000, -5.000000000000000000, 0.0000000000000000000 ) ) ;
#32 = CYLINDRICAL_SURFACE ( 'NONE', #208, 5.000000000000000000 ) ;
#33 = SURFACE_STYLE_FILL_AREA ( #186 ) ;
#34 = DIRECTION ( 'NONE',  ( 0.0000000000000000000, 0.0000000000000000000, -1.000000000000000000 ) ) ;
#35 = ORIENTED_EDGE ( 'NONE', *, *, #304, .F. ) ;
#36 = AXIS2_PLACEMENT_3D ( 'NONE', #145, #112, #200 ) ;
#37 = DIRECTION ( 'NONE',  ( 0.0000000000000000000, 0.0000000000000000000, -1.000000000000000000 ) ) ;
#38 = CARTESIAN_POINT ( 'NONE',  ( 6.123233995736766300E-016, 4.000000000000000000, 5.000000000000000000 ) ) ;
#39 = DIRECTION ( 'NONE',  ( 0.0000000000000000000, -0.7071067811865460200, -0.7071067811865490200 ) ) ;
#40 = ORIENTED_EDGE ( 'NONE', *, *, #83, .F. ) ;
#41 = STYLED_ITEM ( 'NONE', ( #85 ), #82 ) ;
#42 = UNCERTAINTY_MEASURE_WITH_UNIT (LENGTH_MEASURE( 1.000000000000000100E-005 ), #84, 'distance_accuracy_value', 'NONE');
#43 = DIRECTION ( 'NONE',  ( 0.0000000000000000000, 0.0000000000000000000, -1.000000000000000000 ) ) ;
#44 = DIRECTION ( 'NONE',  ( 0.0000000000000000000, 0.0000000000000000000, -1.000000000000000000 ) ) ;
#45 = STYLED_ITEM ( 'NONE', ( #138 ), #59 ) ;
#46 = COLOUR_RGB ( '',0.2509803921568627400, 0.2509803921568627400, 0.2509803921568627400 ) ;
#47 = CARTESIAN_POINT ( 'NONE',  ( 0.0000000000000000000, 4.000000000000000000, 0.0000000000000000000 ) ) ;
#48 =( NAMED_UNIT ( * ) PLANE_ANGLE_UNIT ( ) SI_UNIT ( $, .RADIAN. ) );
#49 = CONICAL_SURFACE ( 'NONE', #231, 5.000000000000000000, 0.7853981633974505000 ) ;
#50 = EDGE_LOOP ( 'NONE', ( #273, #184, #267, #308 ) ) ;
#51 = ADVANCED_FACE ( 'NONE', ( #295 ), #290, .T. ) ;
#52 = EDGE_CURVE ( 'NONE', #224, #168, #167, .T. ) ;
#53 = VECTOR ( 'NONE', #39, 1000.000000000000100 ) ;
#54 = DIRECTION ( 'NONE',  ( 0.0000000000000000000, 0.0000000000000000000, -1.000000000000000000 ) ) ;
#55 = ORIENTED_EDGE ( 'NONE', *, *, #66, .F. ) ;
#56 = ADVANCED_FACE ( 'NONE', ( #63 ), #222, .T. ) ;
#57 = FILL_AREA_STYLE_COLOUR ( '', #46 ) ;
#58 = AXIS2_PLACEMENT_3D ( 'NONE', #248, #172, #37 ) ;
#59 = ADVANCED_BREP_SHAPE_REPRESENTATION ( '21628~0', ( #29, #132 ), #144 ) ;
#60 = VECTOR ( 'NONE', #316, 1000.000000000000000 ) ;
#61 = PRODUCT_DEFINITION_CONTEXT ( 'detailed design', #125, 'design' ) ;
#62 = FACE_OUTER_BOUND ( 'NONE', #264, .T. ) ;
#63 = FACE_OUTER_BOUND ( 'NONE', #211, .T. ) ;
#64 = ORIENTED_EDGE ( 'NONE', *, *, #116, .F. ) ;
#65 = UNCERTAINTY_MEASURE_WITH_UNIT (LENGTH_MEASURE( 1.000000000000000100E-005 ), #19, 'distance_accuracy_value', 'NONE');
#66 = EDGE_CURVE ( 'NONE', #119, #218, #30, .T. ) ;
#67 = CARTESIAN_POINT ( 'NONE',  ( -2.853332804406139600E-015, 6.650000000000000400, 0.0000000000000000000 ) ) ;
#68 = PLANE ( 'NONE',  #183 ) ;
#69 = DIRECTION ( 'NONE',  ( -0.0000000000000000000, -1.000000000000000000, -0.0000000000000000000 ) ) ;
#70 = DIRECTION ( 'NONE',  ( -0.0000000000000000000, -1.000000000000000000, -0.0000000000000000000 ) ) ;
#71 = ORIENTED_EDGE ( 'NONE', *, *, #150, .T. ) ;
#72 = CARTESIAN_POINT ( 'NONE',  ( 0.0000000000000000000, 7.500000000000000000, 0.0000000000000000000 ) ) ;
#73 = EDGE_LOOP ( 'NONE', ( #55, #155, #314 ) ) ;
#74 = DIRECTION ( 'NONE',  ( 0.0000000000000000000, 0.0000000000000000000, -1.000000000000000000 ) ) ;
#75 = AXIS2_PLACEMENT_3D ( 'NONE', #281, #230, #16 ) ;
#76 = SURFACE_STYLE_USAGE ( .BOTH. , #103 ) ;
#77 = CLOSED_SHELL ( 'NONE', ( #126, #82, #51, #56, #157, #212, #87, #129, #301, #23 ) ) ;
#78 = APPLICATION_CONTEXT ( 'automotive_design' ) ;
#79 = MECHANICAL_DESIGN_GEOMETRIC_PRESENTATION_REPRESENTATION (  '', ( #45 ), #161 ) ;
#80 = ORIENTED_EDGE ( 'NONE', *, *, #315, .F. ) ;
#81 = ORIENTED_EDGE ( 'NONE', *, *, #141, .F. ) ;
#82 = ADVANCED_FACE ( 'NONE', ( #25 ), #4, .F. ) ;
#83 = EDGE_CURVE ( 'NONE', #224, #311, #300, .T. ) ;
#84 =( LENGTH_UNIT ( ) NAMED_UNIT ( * ) SI_UNIT ( .MILLI., .METRE. ) );
#85 = PRESENTATION_STYLE_ASSIGNMENT (( #244 ) ) ;
#86 = DIRECTION ( 'NONE',  ( -0.0000000000000000000, -1.000000000000000000, -0.0000000000000000000 ) ) ;
#87 = ADVANCED_FACE ( 'NONE', ( #20 ), #49, .T. ) ;
#88 = ORIENTED_EDGE ( 'NONE', *, *, #133, .F. ) ;
#89 =( NAMED_UNIT ( * ) PLANE_ANGLE_UNIT ( ) SI_UNIT ( $, .RADIAN. ) );
#90 = EDGE_CURVE ( 'NONE', #102, #224, #285, .T. ) ;
#91 = UNCERTAINTY_MEASURE_WITH_UNIT (LENGTH_MEASURE( 1.000000000000000100E-005 ), #279, 'distance_accuracy_value', 'NONE');
#92 = CARTESIAN_POINT ( 'NONE',  ( 0.0000000000000000000, 5.000000000000000000, 0.0000000000000000000 ) ) ;
#93 = STYLED_ITEM ( 'NONE', ( #173 ), #301 ) ;
#94 = CARTESIAN_POINT ( 'NONE',  ( 0.0000000000000000000, -5.000000000000000000, 0.0000000000000000000 ) ) ;
#95 = PRODUCT_DEFINITION ( 'UNKNOWN', '', #108, #61 ) ;
#96 = DIRECTION ( 'NONE',  ( -0.0000000000000000000, -1.000000000000000000, -0.0000000000000000000 ) ) ;
#97 = CARTESIAN_POINT ( 'NONE',  ( 0.0000000000000000000, -8.048191214470284300, 0.0000000000000000000 ) ) ;
#98 = AXIS2_PLACEMENT_3D ( 'NONE', #72, #176, #147 ) ;
#99 = VECTOR ( 'NONE', #86, 1000.000000000000000 ) ;
#100 = STYLED_ITEM ( 'NONE', ( #131 ), #29 ) ;
#101 = FILL_AREA_STYLE_COLOUR ( '', #318 ) ;
#102 = VERTEX_POINT ( 'NONE', #225 ) ;
#103 = SURFACE_SIDE_STYLE ('',( #1 ) ) ;
#104 = CIRCLE ( 'NONE', #75, 5.000000000000000000 ) ;
#105 = VECTOR ( 'NONE', #242, 999.9999999999998900 ) ;
#106 = DIRECTION ( 'NONE',  ( 0.0000000000000000000, 0.0000000000000000000, -1.000000000000000000 ) ) ;
#107 = ORIENTED_EDGE ( 'NONE', *, *, #304, .T. ) ;
#108 = PRODUCT_DEFINITION_FORMATION_WITH_SPECIFIED_SOURCE ( 'ANY', '', #283, .NOT_KNOWN. ) ;
#109 = DIRECTION ( 'NONE',  ( -0.0000000000000000000, -1.000000000000000000, -0.0000000000000000000 ) ) ;
#110 = EDGE_LOOP ( 'NONE', ( #278, #35 ) ) ;
#111 = ORIENTED_EDGE ( 'NONE', *, *, #66, .T. ) ;
#112 = DIRECTION ( 'NONE',  ( 0.0000000000000000000, 1.000000000000000000, 0.0000000000000000000 ) ) ;
#113 = LINE ( 'NONE', #271, #60 ) ;
#114 = ORIENTED_EDGE ( 'NONE', *, *, #203, .T. ) ;
#115 = CARTESIAN_POINT ( 'NONE',  ( 0.0000000000000000000, 7.500000000000000000, -1.499999999999985300 ) ) ;
#116 = EDGE_CURVE ( 'NONE', #245, #289, #113, .T. ) ;
#117 = CARTESIAN_POINT ( 'NONE',  ( 0.0000000000000000000, 5.000000000000000000, 0.0000000000000000000 ) ) ;
#118 = ORIENTED_EDGE ( 'NONE', *, *, #260, .F. ) ;
#119 = VERTEX_POINT ( 'NONE', #67 ) ;
#120 = CARTESIAN_POINT ( 'NONE',  ( 6.123233995736766300E-016, 4.000000000000000000, 5.000000000000000000 ) ) ;
#121 = CONICAL_SURFACE ( 'NONE', #136, 1.649999999999997500, 0.7853981633974465000 ) ;
#122 =( NAMED_UNIT ( * ) PLANE_ANGLE_UNIT ( ) SI_UNIT ( $, .RADIAN. ) );
#123 = ORIENTED_EDGE ( 'NONE', *, *, #288, .F. ) ;
#124 = UNCERTAINTY_MEASURE_WITH_UNIT (LENGTH_MEASURE( 1.000000000000000100E-005 ), #258, 'distance_accuracy_value', 'NONE');
#125 = APPLICATION_CONTEXT ( 'automotive_design' ) ;
#126 = ADVANCED_FACE ( 'NONE', ( #259 ), #121, .F. ) ;
#127 = EDGE_CURVE ( 'NONE', #254, #289, #313, .T. ) ;
#128 = LINE ( 'NONE', #276, #262 ) ;
#129 = ADVANCED_FACE ( 'NONE', ( #135 ), #142, .T. ) ;
#130 = DIRECTION ( 'NONE',  ( -0.0000000000000000000, -1.000000000000000000, -0.0000000000000000000 ) ) ;
#131 = PRESENTATION_STYLE_ASSIGNMENT (( #241 ) ) ;
#132 = AXIS2_PLACEMENT_3D ( 'NONE', #180, #282, #21 ) ;
#133 = EDGE_CURVE ( 'NONE', #289, #254, #307, .T. ) ;
#134 =( NAMED_UNIT ( * ) SI_UNIT ( $, .STERADIAN. ) SOLID_ANGLE_UNIT ( ) );
#135 = FACE_OUTER_BOUND ( 'NONE', #110, .T. ) ;
#136 = AXIS2_PLACEMENT_3D ( 'NONE', #92, #221, #174 ) ;
#137 = DIRECTION ( 'NONE',  ( 0.0000000000000000000, 0.0000000000000000000, -1.000000000000000000 ) ) ;
#138 = PRESENTATION_STYLE_ASSIGNMENT (( #76 ) ) ;
#139 = ORIENTED_EDGE ( 'NONE', *, *, #288, .T. ) ;
#140 = DIRECTION ( 'NONE',  ( 0.0000000000000000000, 0.0000000000000000000, -1.000000000000000000 ) ) ;
#141 = EDGE_CURVE ( 'NONE', #311, #195, #194, .T. ) ;
#142 = PLANE ( 'NONE',  #36 ) ;
#143 = PRESENTATION_LAYER_ASSIGNMENT (  '', '', ( #45 ) ) ;
#144 =( GEOMETRIC_REPRESENTATION_CONTEXT ( 3 ) GLOBAL_UNCERTAINTY_ASSIGNED_CONTEXT ( ( #91 ) ) GLOBAL_UNIT_ASSIGNED_CONTEXT ( ( #279, #48, #235 ) ) REPRESENTATION_CONTEXT ( 'NONE', 'WORKASPACE' ) );
#145 = CARTESIAN_POINT ( 'NONE',  ( 1.499999999999985300, 7.500000000000000900, 0.0000000000000000000 ) ) ;
#146 = EDGE_CURVE ( 'NONE', #168, #195, #266, .T. ) ;
#147 = DIRECTION ( 'NONE',  ( 0.0000000000000000000, 0.0000000000000000000, -1.000000000000000000 ) ) ;
#148 = CARTESIAN_POINT ( 'NONE',  ( 2.020667218593129800E-016, 5.000000000000000000, 1.649999999999997500 ) ) ;
#149 = SURFACE_SIDE_STYLE ('',( #197 ) ) ;
#150 = EDGE_CURVE ( 'NONE', #324, #311, #201, .T. ) ;
#151 = COLOUR_RGB ( '',0.7529411764705882200, 0.7529411764705882200, 0.7529411764705882200 ) ;
#152 = EDGE_LOOP ( 'NONE', ( #305, #111, #8 ) ) ;
#153 = AXIS2_PLACEMENT_3D ( 'NONE', #31, #109, #140 ) ;
#154 = APPLICATION_PROTOCOL_DEFINITION ( 'draft international standard', 'automotive_design', 1998, #78 ) ;
#155 = ORIENTED_EDGE ( 'NONE', *, *, #7, .T. ) ;
#156 = CARTESIAN_POINT ( 'NONE',  ( 6.123233995736766300E-016, -8.048191214470284300, 5.000000000000000000 ) ) ;
#157 = ADVANCED_FACE ( 'NONE', ( #209, #193 ), #68, .T. ) ;
#158 = APPLICATION_PROTOCOL_DEFINITION ( 'draft international standard', 'automotive_design', 1998, #125 ) ;
#159 = MECHANICAL_DESIGN_GEOMETRIC_PRESENTATION_REPRESENTATION (  '', ( #100 ), #177 ) ;
#160 = COLOUR_RGB ( '',0.2509803921568627400, 0.2509803921568627400, 0.2509803921568627400 ) ;
#161 =( GEOMETRIC_REPRESENTATION_CONTEXT ( 3 ) GLOBAL_UNCERTAINTY_ASSIGNED_CONTEXT ( ( #124 ) ) GLOBAL_UNIT_ASSIGNED_CONTEXT ( ( #258, #122, #210 ) ) REPRESENTATION_CONTEXT ( 'NONE', 'WORKASPACE' ) );
#162 = PRODUCT_RELATED_PRODUCT_CATEGORY ( 'part', '', ( #283 ) ) ;
#163 = LINE ( 'NONE', #239, #105 ) ;
#164 = AXIS2_PLACEMENT_3D ( 'NONE', #284, #130, #54 ) ;
#165 = FACE_OUTER_BOUND ( 'NONE', #50, .T. ) ;
#166 = UNCERTAINTY_MEASURE_WITH_UNIT (LENGTH_MEASURE( 1.000000000000000100E-005 ), #243, 'distance_accuracy_value', 'NONE');
#167 = LINE ( 'NONE', #156, #99 ) ;
#168 = VERTEX_POINT ( 'NONE', #226 ) ;
#169 = CARTESIAN_POINT ( 'NONE',  ( 0.0000000000000000000, -5.000000000000000000, 0.0000000000000000000 ) ) ;
#170 = DIRECTION ( 'NONE',  ( -0.0000000000000000000, -1.000000000000000000, -0.0000000000000000000 ) ) ;
#171 = AXIS2_PLACEMENT_3D ( 'NONE', #12, #170, #199 ) ;
#172 = DIRECTION ( 'NONE',  ( -0.0000000000000000000, -1.000000000000000000, -0.0000000000000000000 ) ) ;
#173 = PRESENTATION_STYLE_ASSIGNMENT (( #274 ) ) ;
#174 = DIRECTION ( 'NONE',  ( 0.0000000000000000000, 0.0000000000000000000, -1.000000000000000000 ) ) ;
#175 = EDGE_LOOP ( 'NONE', ( #188, #189, #269, #216 ) ) ;
#176 = DIRECTION ( 'NONE',  ( -0.0000000000000000000, -1.000000000000000000, -0.0000000000000000000 ) ) ;
#177 =( GEOMETRIC_REPRESENTATION_CONTEXT ( 3 ) GLOBAL_UNCERTAINTY_ASSIGNED_CONTEXT ( ( #42 ) ) GLOBAL_UNIT_ASSIGNED_CONTEXT ( ( #84, #191, #134 ) ) REPRESENTATION_CONTEXT ( 'NONE', 'WORKASPACE' ) );
#178 = DIRECTION ( 'NONE',  ( 0.0000000000000000000, 0.0000000000000000000, -1.000000000000000000 ) ) ;
#179 = CONICAL_SURFACE ( 'NONE', #164, 1.649999999999997500, 0.7853981633974465000 ) ;
#180 = CARTESIAN_POINT ( 'NONE',  ( 0.0000000000000000000, 0.0000000000000000000, 0.0000000000000000000 ) ) ;
#181 = ORIENTED_EDGE ( 'NONE', *, *, #127, .F. ) ;
#182 = CARTESIAN_POINT ( 'NONE',  ( 0.0000000000000000000, -5.000000000000000000, -1.649999999999998600 ) ) ;
#183 = AXIS2_PLACEMENT_3D ( 'NONE', #169, #246, #223 ) ;
#184 = ORIENTED_EDGE ( 'NONE', *, *, #83, .T. ) ;
#185 = PRESENTATION_LAYER_ASSIGNMENT (  '', '', ( #100 ) ) ;
#186 = FILL_AREA_STYLE ('',( #57 ) ) ;
#187 = CIRCLE ( 'NONE', #261, 1.649999999999997500 ) ;
#188 = ORIENTED_EDGE ( 'NONE', *, *, #299, .T. ) ;
#189 = ORIENTED_EDGE ( 'NONE', *, *, #90, .T. ) ;
#190 = PRODUCT_DEFINITION_SHAPE ( 'NONE', 'NONE',  #95 ) ;
#191 =( NAMED_UNIT ( * ) PLANE_ANGLE_UNIT ( ) SI_UNIT ( $, .RADIAN. ) );
#192 = SURFACE_SIDE_STYLE ('',( #215 ) ) ;
#193 = FACE_OUTER_BOUND ( 'NONE', #234, .T. ) ;
#194 = LINE ( 'NONE', #14, #323 ) ;
#195 = VERTEX_POINT ( 'NONE', #319 ) ;
#196 = DIRECTION ( 'NONE',  ( 8.659560562354918100E-017, -0.7071067811865489100, 0.7071067811865462400 ) ) ;
#197 = SURFACE_STYLE_FILL_AREA ( #321 ) ;
#198 = MECHANICAL_DESIGN_GEOMETRIC_PRESENTATION_REPRESENTATION (  '', ( #41 ), #217 ) ;
#199 = DIRECTION ( 'NONE',  ( 0.0000000000000000000, 0.0000000000000000000, -1.000000000000000000 ) ) ;
#200 = DIRECTION ( 'NONE',  ( 0.0000000000000000000, -0.0000000000000000000, 1.000000000000000000 ) ) ;
#201 = LINE ( 'NONE', #202, #53 ) ;
#202 = CARTESIAN_POINT ( 'NONE',  ( 0.0000000000000000000, 4.000000000000000000, -5.000000000000000000 ) ) ;
#203 = EDGE_CURVE ( 'NONE', #195, #168, #104, .T. ) ;
#204 = DIRECTION ( 'NONE',  ( -0.0000000000000000000, -1.000000000000000000, -0.0000000000000000000 ) ) ;
#205 = DIRECTION ( 'NONE',  ( 0.0000000000000000000, 0.0000000000000000000, -1.000000000000000000 ) ) ;
#206 = ORIENTED_EDGE ( 'NONE', *, *, #90, .F. ) ;
#207 = CARTESIAN_POINT ( 'NONE',  ( 0.0000000000000000000, 7.500000000000000000, 0.0000000000000000000 ) ) ;
#208 = AXIS2_PLACEMENT_3D ( 'NONE', #97, #69, #44 ) ;
#209 = FACE_BOUND ( 'NONE', #10, .T. ) ;
#210 =( NAMED_UNIT ( * ) SI_UNIT ( $, .STERADIAN. ) SOLID_ANGLE_UNIT ( ) );
#211 = EDGE_LOOP ( 'NONE', ( #263, #5, #228, #81 ) ) ;
#212 = ADVANCED_FACE ( 'NONE', ( #165 ), #32, .T. ) ;
#213 = CARTESIAN_POINT ( 'NONE',  ( 0.0000000000000000000, 4.000000000000000000, 0.0000000000000000000 ) ) ;
#214 = MECHANICAL_DESIGN_GEOMETRIC_PRESENTATION_REPRESENTATION (  '', ( #93 ), #11 ) ;
#215 = SURFACE_STYLE_FILL_AREA ( #287 ) ;
#216 = ORIENTED_EDGE ( 'NONE', *, *, #150, .F. ) ;
#217 =( GEOMETRIC_REPRESENTATION_CONTEXT ( 3 ) GLOBAL_UNCERTAINTY_ASSIGNED_CONTEXT ( ( #166 ) ) GLOBAL_UNIT_ASSIGNED_CONTEXT ( ( #243, #89, #28 ) ) REPRESENTATION_CONTEXT ( 'NONE', 'WORKASPACE' ) );
#218 = VERTEX_POINT ( 'NONE', #148 ) ;
#219 = AXIS2_PLACEMENT_3D ( 'NONE', #302, #22, #106 ) ;
#220 = FILL_AREA_STYLE_COLOUR ( '', #151 ) ;
#221 = DIRECTION ( 'NONE',  ( -0.0000000000000000000, -1.000000000000000000, -0.0000000000000000000 ) ) ;
#222 = CYLINDRICAL_SURFACE ( 'NONE', #219, 5.000000000000000000 ) ;
#223 = DIRECTION ( 'NONE',  ( 0.0000000000000000000, 0.0000000000000000000, -1.000000000000000000 ) ) ;
#224 = VERTEX_POINT ( 'NONE', #120 ) ;
#225 = CARTESIAN_POINT ( 'NONE',  ( 3.980102097228889400E-016, 7.500000000000000000, 1.499999999999985300 ) ) ;
#226 = CARTESIAN_POINT ( 'NONE',  ( 6.123233995736766300E-016, -5.000000000000000000, 5.000000000000000000 ) ) ;
#227 = CYLINDRICAL_SURFACE ( 'NONE', #3, 1.649999999999998100 ) ;
#228 = ORIENTED_EDGE ( 'NONE', *, *, #203, .F. ) ;
#229 = AXIS2_PLACEMENT_3D ( 'NONE', #207, #204, #43 ) ;
#230 = DIRECTION ( 'NONE',  ( -0.0000000000000000000, -1.000000000000000000, -0.0000000000000000000 ) ) ;
#231 = AXIS2_PLACEMENT_3D ( 'NONE', #286, #306, #137 ) ;
#232 = CARTESIAN_POINT ( 'NONE',  ( 0.0000000000000000000, 5.000000000000000000, 0.0000000000000000000 ) ) ;
#233 = DIRECTION ( 'NONE',  ( -0.0000000000000000000, -1.000000000000000000, -0.0000000000000000000 ) ) ;
#234 = EDGE_LOOP ( 'NONE', ( #114, #297 ) ) ;
#235 =( NAMED_UNIT ( * ) SI_UNIT ( $, .STERADIAN. ) SOLID_ANGLE_UNIT ( ) );
#236 = SHAPE_DEFINITION_REPRESENTATION ( #190, #59 ) ;
#237 = VECTOR ( 'NONE', #196, 999.9999999999998900 ) ;
#238 = AXIS2_PLACEMENT_3D ( 'NONE', #6, #268, #309 ) ;
#239 = CARTESIAN_POINT ( 'NONE',  ( 0.0000000000000000000, 5.000000000000000000, -1.649999999999997500 ) ) ;
#240 = EDGE_LOOP ( 'NONE', ( #206, #107, #71, #40 ) ) ;
#241 = SURFACE_STYLE_USAGE ( .BOTH. , #27 ) ;
#242 = DIRECTION ( 'NONE',  ( 0.0000000000000000000, -0.7071067811865489100, -0.7071067811865462400 ) ) ;
#243 =( LENGTH_UNIT ( ) NAMED_UNIT ( * ) SI_UNIT ( .MILLI., .METRE. ) );
#244 = SURFACE_STYLE_USAGE ( .BOTH. , #192 ) ;
#245 = VERTEX_POINT ( 'NONE', #251 ) ;
#246 = DIRECTION ( 'NONE',  ( 0.0000000000000000000, -1.000000000000000000, -0.0000000000000000000 ) ) ;
#247 = CIRCLE ( 'NONE', #98, 1.499999999999985300 ) ;
#248 = CARTESIAN_POINT ( 'NONE',  ( 0.0000000000000000000, -5.000000000000000000, 0.0000000000000000000 ) ) ;
#249 = ORIENTED_EDGE ( 'NONE', *, *, #133, .T. ) ;
#250 = DIRECTION ( 'NONE',  ( -0.0000000000000000000, -1.000000000000000000, -0.0000000000000000000 ) ) ;
#251 = CARTESIAN_POINT ( 'NONE',  ( 0.0000000000000000000, 5.000000000000000000, -1.649999999999997500 ) ) ;
#252 =( NAMED_UNIT ( * ) PLANE_ANGLE_UNIT ( ) SI_UNIT ( $, .RADIAN. ) );
#253 = CIRCLE ( 'NONE', #229, 1.499999999999985300 ) ;
#254 = VERTEX_POINT ( 'NONE', #296 ) ;
#255 = FILL_AREA_STYLE_COLOUR ( '', #160 ) ;
#256 = AXIS2_PLACEMENT_3D ( 'NONE', #94, #312, #34 ) ;
#257 =( NAMED_UNIT ( * ) SI_UNIT ( $, .STERADIAN. ) SOLID_ANGLE_UNIT ( ) );
#258 =( LENGTH_UNIT ( ) NAMED_UNIT ( * ) SI_UNIT ( .MILLI., .METRE. ) );
#259 = FACE_OUTER_BOUND ( 'NONE', #152, .T. ) ;
#260 = EDGE_CURVE ( 'NONE', #245, #218, #293, .T. ) ;
#261 = AXIS2_PLACEMENT_3D ( 'NONE', #232, #96, #205 ) ;
#262 = VECTOR ( 'NONE', #15, 1000.000000000000000 ) ;
#263 = ORIENTED_EDGE ( 'NONE', *, *, #320, .T. ) ;
#264 = EDGE_LOOP ( 'NONE', ( #123, #118, #26, #249 ) ) ;
#265 = DIRECTION ( 'NONE',  ( -0.0000000000000000000, -1.000000000000000000, -0.0000000000000000000 ) ) ;
#266 = CIRCLE ( 'NONE', #58, 5.000000000000000000 ) ;
#267 = ORIENTED_EDGE ( 'NONE', *, *, #141, .T. ) ;
#268 = DIRECTION ( 'NONE',  ( -0.0000000000000000000, -1.000000000000000000, -0.0000000000000000000 ) ) ;
#269 = ORIENTED_EDGE ( 'NONE', *, *, #320, .F. ) ;
#270 = DIRECTION ( 'NONE',  ( -0.0000000000000000000, -1.000000000000000000, -0.0000000000000000000 ) ) ;
#271 = CARTESIAN_POINT ( 'NONE',  ( 0.0000000000000000000, -5.000000000000000000, -1.649999999999998100 ) ) ;
#272 = VECTOR ( 'NONE', #292, 1000.000000000000100 ) ;
#273 = ORIENTED_EDGE ( 'NONE', *, *, #52, .F. ) ;
#274 = SURFACE_STYLE_USAGE ( .BOTH. , #149 ) ;
#275 = CIRCLE ( 'NONE', #18, 5.000000000000000000 ) ;
#276 = CARTESIAN_POINT ( 'NONE',  ( 2.020667218593130300E-016, -5.000000000000000000, 1.649999999999998100 ) ) ;
#277 = EDGE_LOOP ( 'NONE', ( #80, #139, #291, #64 ) ) ;
#278 = ORIENTED_EDGE ( 'NONE', *, *, #299, .F. ) ;
#279 =( LENGTH_UNIT ( ) NAMED_UNIT ( * ) SI_UNIT ( .MILLI., .METRE. ) );
#280 = DIRECTION ( 'NONE',  ( 0.0000000000000000000, 0.0000000000000000000, -1.000000000000000000 ) ) ;
#281 = CARTESIAN_POINT ( 'NONE',  ( 0.0000000000000000000, -5.000000000000000000, 0.0000000000000000000 ) ) ;
#282 = DIRECTION ( 'NONE',  ( 0.0000000000000000000, 0.0000000000000000000, 1.000000000000000000 ) ) ;
#283 = PRODUCT ( '21628~0', '21628~0', '', ( #322 ) ) ;
#284 = CARTESIAN_POINT ( 'NONE',  ( 0.0000000000000000000, 5.000000000000000000, 0.0000000000000000000 ) ) ;
#285 = LINE ( 'NONE', #38, #272 ) ;
#286 = CARTESIAN_POINT ( 'NONE',  ( 0.0000000000000000000, 4.000000000000000000, 0.0000000000000000000 ) ) ;
#287 = FILL_AREA_STYLE ('',( #220 ) ) ;
#288 = EDGE_CURVE ( 'NONE', #218, #254, #128, .T. ) ;
#289 = VERTEX_POINT ( 'NONE', #182 ) ;
#290 = CONICAL_SURFACE ( 'NONE', #13, 5.000000000000000000, 0.7853981633974505000 ) ;
#291 = ORIENTED_EDGE ( 'NONE', *, *, #127, .T. ) ;
#292 = DIRECTION ( 'NONE',  ( 8.659560562354952600E-017, -0.7071067811865460200, 0.7071067811865490200 ) ) ;
#293 = CIRCLE ( 'NONE', #298, 1.649999999999997500 ) ;
#294 = PRESENTATION_LAYER_ASSIGNMENT (  '', '', ( #93 ) ) ;
#295 = FACE_OUTER_BOUND ( 'NONE', #175, .T. ) ;
#296 = CARTESIAN_POINT ( 'NONE',  ( 2.020667218593131300E-016, -5.000000000000000000, 1.649999999999998600 ) ) ;
#297 = ORIENTED_EDGE ( 'NONE', *, *, #146, .T. ) ;
#298 = AXIS2_PLACEMENT_3D ( 'NONE', #117, #70, #178 ) ;
#299 = EDGE_CURVE ( 'NONE', #324, #102, #247, .T. ) ;
#300 = CIRCLE ( 'NONE', #238, 5.000000000000000000 ) ;
#301 = ADVANCED_FACE ( 'NONE', ( #62 ), #227, .F. ) ;
#302 = CARTESIAN_POINT ( 'NONE',  ( 0.0000000000000000000, -8.048191214470284300, 0.0000000000000000000 ) ) ;
#303 = FILL_AREA_STYLE ('',( #255 ) ) ;
#304 = EDGE_CURVE ( 'NONE', #102, #324, #253, .T. ) ;
#305 = ORIENTED_EDGE ( 'NONE', *, *, #7, .F. ) ;
#306 = DIRECTION ( 'NONE',  ( -0.0000000000000000000, -1.000000000000000000, -0.0000000000000000000 ) ) ;
#307 = CIRCLE ( 'NONE', #256, 1.649999999999998600 ) ;
#308 = ORIENTED_EDGE ( 'NONE', *, *, #146, .F. ) ;
#309 = DIRECTION ( 'NONE',  ( 0.0000000000000000000, 0.0000000000000000000, -1.000000000000000000 ) ) ;
#310 = FACE_OUTER_BOUND ( 'NONE', #73, .T. ) ;
#311 = VERTEX_POINT ( 'NONE', #17 ) ;
#312 = DIRECTION ( 'NONE',  ( -0.0000000000000000000, -1.000000000000000000, -0.0000000000000000000 ) ) ;
#313 = CIRCLE ( 'NONE', #171, 1.649999999999998600 ) ;
#314 = ORIENTED_EDGE ( 'NONE', *, *, #260, .T. ) ;
#315 = EDGE_CURVE ( 'NONE', #218, #245, #187, .T. ) ;
#316 = DIRECTION ( 'NONE',  ( -0.0000000000000000000, -1.000000000000000000, -0.0000000000000000000 ) ) ;
#317 = CARTESIAN_POINT ( 'NONE',  ( 0.0000000000000000000, -5.000000000000000000, 0.0000000000000000000 ) ) ;
#318 = COLOUR_RGB ( '',0.7529411764705882200, 0.7529411764705882200, 0.7529411764705882200 ) ;
#319 = CARTESIAN_POINT ( 'NONE',  ( 0.0000000000000000000, -5.000000000000000000, -5.000000000000000000 ) ) ;
#320 = EDGE_CURVE ( 'NONE', #311, #224, #275, .T. ) ;
#321 = FILL_AREA_STYLE ('',( #101 ) ) ;
#322 = PRODUCT_CONTEXT ( 'NONE', #78, 'mechanical' ) ;
#323 = VECTOR ( 'NONE', #270, 1000.000000000000000 ) ;
#324 = VERTEX_POINT ( 'NONE', #115 ) ;
ENDSEC;
END-ISO-10303-21;
